ISO-10303-21;
HEADER;
FILE_DESCRIPTION (( 'STEP AP214' ),
    '1' );
FILE_NAME ('0024167.step',
    '2022-09-30T09:09:00',
    ( '' ),
    ( '' ),
    'SwSTEP 2.0',
    'SolidWorks 2020',
    '' );
FILE_SCHEMA (( 'AUTOMOTIVE_DESIGN' ));
ENDSEC;

DATA;
#1 = DIRECTION ( 'NONE',  ( 0.0000000000000000000, 0.0000000000000000000, -1.000000000000000000 ) ) ;
#2 = CIRCLE ( 'NONE', #234, 44.50000000000000000 ) ;
#3 = EDGE_LOOP ( 'NONE', ( #196, #112, #100, #92 ) ) ;
#4 = ADVANCED_FACE ( 'NONE', ( #125 ), #315, .T. ) ;
#5 = CARTESIAN_POINT ( 'NONE',  ( 20.00000000000000000, 0.0000000000000000000, 0.0000000000000000000 ) ) ;
#6 = VERTEX_POINT ( 'NONE', #66 ) ;
#7 = FILL_AREA_STYLE_COLOUR ( '', #183 ) ;
#8 = AXIS2_PLACEMENT_3D ( 'NONE', #211, #179, #273 ) ;
#9 = FACE_OUTER_BOUND ( 'NONE', #37, .T. ) ;
#10 = DIRECTION ( 'NONE',  ( 1.000000000000000000, -0.0000000000000000000, -0.0000000000000000000 ) ) ;
#11 = CARTESIAN_POINT ( 'NONE',  ( 0.0000000000000000000, 0.0000000000000000000, -44.50000000000000000 ) ) ;
#12 = CIRCLE ( 'NONE', #34, 2.000000000000001776 ) ;
#13 = CARTESIAN_POINT ( 'NONE',  ( -20.00000000000000000, 0.0000000000000000000, -64.49999999999998579 ) ) ;
#14 = EDGE_LOOP ( 'NONE', ( #134, #41, #166, #215 ) ) ;
#15 =( NAMED_UNIT ( * ) PLANE_ANGLE_UNIT ( ) SI_UNIT ( $, .RADIAN. ) );
#16 = ORIENTED_EDGE ( 'NONE', *, *, #148, .F. ) ;
#17 = ADVANCED_BREP_SHAPE_REPRESENTATION ( '0024167', ( #154, #135 ), #184 ) ;
#18 = CARTESIAN_POINT ( 'NONE',  ( 0.0000000000000000000, 0.0000000000000000000, 0.0000000000000000000 ) ) ;
#19 = ADVANCED_FACE ( 'NONE', ( #173 ), #225, .T. ) ;
#20 = CIRCLE ( 'NONE', #71, 66.50000000000000000 ) ;
#21 = VERTEX_POINT ( 'NONE', #226 ) ;
#22 = SURFACE_STYLE_FILL_AREA ( #118 ) ;
#23 = LINE ( 'NONE', #156, #200 ) ;
#24 = ORIENTED_EDGE ( 'NONE', *, *, #123, .T. ) ;
#25 = DIRECTION ( 'NONE',  ( 1.000000000000000000, -0.0000000000000000000, -0.0000000000000000000 ) ) ;
#26 = ORIENTED_EDGE ( 'NONE', *, *, #148, .T. ) ;
#27 = CARTESIAN_POINT ( 'NONE',  ( -20.00000000000000000, 0.0000000000000000000, 0.0000000000000000000 ) ) ;
#28 = EDGE_LOOP ( 'NONE', ( #311, #46 ) ) ;
#29 = EDGE_CURVE ( 'NONE', #248, #198, #314, .T. ) ;
#30 = ORIENTED_EDGE ( 'NONE', *, *, #186, .T. ) ;
#31 = DIRECTION ( 'NONE',  ( 1.000000000000000000, -0.0000000000000000000, -0.0000000000000000000 ) ) ;
#32 = ADVANCED_FACE ( 'NONE', ( #126 ), #296, .F. ) ;
#33 = CIRCLE ( 'NONE', #258, 2.000000000000001776 ) ;
#34 = AXIS2_PLACEMENT_3D ( 'NONE', #292, #275, #313 ) ;
#35 = DIRECTION ( 'NONE',  ( 0.0000000000000000000, 0.0000000000000000000, -1.000000000000000000 ) ) ;
#36 = ADVANCED_FACE ( 'NONE', ( #150 ), #228, .F. ) ;
#37 = EDGE_LOOP ( 'NONE', ( #305, #257 ) ) ;
#38 = COLOUR_RGB ( '',0.2509803921568627416, 0.2509803921568627416, 0.2509803921568627416 ) ;
#39 = DIRECTION ( 'NONE',  ( -0.0000000000000000000, -1.000000000000000000, -0.0000000000000000000 ) ) ;
#40 = PRODUCT_DEFINITION_SHAPE ( 'NONE', 'NONE',  #309 ) ;
#41 = ORIENTED_EDGE ( 'NONE', *, *, #80, .T. ) ;
#42 = EDGE_CURVE ( 'NONE', #139, #49, #12, .T. ) ;
#43 = CARTESIAN_POINT ( 'NONE',  ( 20.00000000000000000, 0.0000000000000000000, -44.50000000000000000 ) ) ;
#44 = CARTESIAN_POINT ( 'NONE',  ( -17.99999999999998579, 0.0000000000000000000, -66.50000000000000000 ) ) ;
#45 = ORIENTED_EDGE ( 'NONE', *, *, #117, .T. ) ;
#46 = ORIENTED_EDGE ( 'NONE', *, *, #29, .F. ) ;
#47 = AXIS2_PLACEMENT_3D ( 'NONE', #18, #168, #35 ) ;
#48 = VECTOR ( 'NONE', #25, 1000.000000000000000 ) ;
#49 = VERTEX_POINT ( 'NONE', #153 ) ;
#50 = CARTESIAN_POINT ( 'NONE',  ( 0.0000000000000000000, 0.0000000000000000000, 0.0000000000000000000 ) ) ;
#51 = TOROIDAL_SURFACE ( 'NONE', #161, 64.50000000000000000, 2.000000000000000000 ) ;
#52 = DIRECTION ( 'NONE',  ( 0.0000000000000000000, 0.0000000000000000000, -1.000000000000000000 ) ) ;
#53 = AXIS2_PLACEMENT_3D ( 'NONE', #77, #69, #182 ) ;
#54 = ORIENTED_EDGE ( 'NONE', *, *, #299, .T. ) ;
#55 = EDGE_CURVE ( 'NONE', #254, #87, #23, .T. ) ;
#56 = CYLINDRICAL_SURFACE ( 'NONE', #79, 66.50000000000000000 ) ;
#57 = CARTESIAN_POINT ( 'NONE',  ( -18.00000000000000355, 7.898971854500428100E-15, 64.50000000000000000 ) ) ;
#58 = DIRECTION ( 'NONE',  ( 1.000000000000000000, -0.0000000000000000000, -0.0000000000000000000 ) ) ;
#59 = EDGE_LOOP ( 'NONE', ( #16, #70, #141, #201 ) ) ;
#60 = CIRCLE ( 'NONE', #250, 66.50000000000000000 ) ;
#61 = ADVANCED_FACE ( 'NONE', ( #145 ), #51, .T. ) ;
#62 = PRODUCT ( '0024167', '0024167', '', ( #205 ) ) ;
#63 =( LENGTH_UNIT ( ) NAMED_UNIT ( * ) SI_UNIT ( .MILLI., .METRE. ) );
#64 = APPLICATION_PROTOCOL_DEFINITION ( 'draft international standard', 'automotive_design', 1998, #297 ) ;
#65 = FACE_OUTER_BOUND ( 'NONE', #114, .T. ) ;
#66 = CARTESIAN_POINT ( 'NONE',  ( -20.00000000000000000, 0.0000000000000000000, -44.50000000000000000 ) ) ;
#67 = DIRECTION ( 'NONE',  ( 0.0000000000000000000, 0.0000000000000000000, -1.000000000000000000 ) ) ;
#68 = DIRECTION ( 'NONE',  ( -0.0000000000000000000, -1.000000000000000000, -0.0000000000000000000 ) ) ;
#69 = DIRECTION ( 'NONE',  ( 1.000000000000000000, -0.0000000000000000000, -0.0000000000000000000 ) ) ;
#70 = ORIENTED_EDGE ( 'NONE', *, *, #132, .T. ) ;
#71 = AXIS2_PLACEMENT_3D ( 'NONE', #279, #281, #236 ) ;
#72 = ADVANCED_FACE ( 'NONE', ( #65 ), #283, .T. ) ;
#73 = CIRCLE ( 'NONE', #295, 66.50000000000000000 ) ;
#74 = DIRECTION ( 'NONE',  ( 1.000000000000000000, 0.0000000000000000000, -0.0000000000000000000 ) ) ;
#75 = DIRECTION ( 'NONE',  ( 0.0000000000000000000, 0.0000000000000000000, -1.000000000000000000 ) ) ;
#76 = FILL_AREA_STYLE_COLOUR ( '', #38 ) ;
#77 = CARTESIAN_POINT ( 'NONE',  ( -20.00000000000000000, 0.0000000000000000000, 0.0000000000000000000 ) ) ;
#78 = DIRECTION ( 'NONE',  ( 1.000000000000000000, -0.0000000000000000000, -0.0000000000000000000 ) ) ;
#79 = AXIS2_PLACEMENT_3D ( 'NONE', #108, #218, #133 ) ;
#80 = EDGE_CURVE ( 'NONE', #208, #254, #20, .T. ) ;
#81 = DIRECTION ( 'NONE',  ( 1.000000000000000000, -0.0000000000000000000, -0.0000000000000000000 ) ) ;
#82 = CARTESIAN_POINT ( 'NONE',  ( -18.00000000000000355, 0.0000000000000000000, -64.50000000000000000 ) ) ;
#83 = ADVANCED_FACE ( 'NONE', ( #9, #294 ), #149, .T. ) ;
#84 = ORIENTED_EDGE ( 'NONE', *, *, #93, .T. ) ;
#85 = CIRCLE ( 'NONE', #235, 44.50000000000000000 ) ;
#86 = FACE_OUTER_BOUND ( 'NONE', #14, .T. ) ;
#87 = VERTEX_POINT ( 'NONE', #127 ) ;
#88 = VECTOR ( 'NONE', #78, 1000.000000000000000 ) ;
#89 = DIRECTION ( 'NONE',  ( 0.0000000000000000000, 0.0000000000000000000, -1.000000000000000000 ) ) ;
#90 = ORIENTED_EDGE ( 'NONE', *, *, #242, .F. ) ;
#91 = PRESENTATION_STYLE_ASSIGNMENT (( #269 ) ) ;
#92 = ORIENTED_EDGE ( 'NONE', *, *, #80, .F. ) ;
#93 = EDGE_CURVE ( 'NONE', #220, #308, #122, .T. ) ;
#94 = MECHANICAL_DESIGN_GEOMETRIC_PRESENTATION_REPRESENTATION (  '', ( #223 ), #277 ) ;
#95 = DIRECTION ( 'NONE',  ( 0.0000000000000000000, 0.0000000000000000000, -1.000000000000000000 ) ) ;
#96 = CIRCLE ( 'NONE', #259, 64.49999999999998579 ) ;
#97 = CARTESIAN_POINT ( 'NONE',  ( -18.00000000000000355, 0.0000000000000000000, 0.0000000000000000000 ) ) ;
#98 = CARTESIAN_POINT ( 'NONE',  ( 17.99999999999998579, 0.0000000000000000000, 0.0000000000000000000 ) ) ;
#99 = DIRECTION ( 'NONE',  ( 1.000000000000000000, -0.0000000000000000000, -0.0000000000000000000 ) ) ;
#100 = ORIENTED_EDGE ( 'NONE', *, *, #219, .T. ) ;
#101 = AXIS2_PLACEMENT_3D ( 'NONE', #301, #81, #189 ) ;
#102 = DIRECTION ( 'NONE',  ( 1.000000000000000000, -0.0000000000000000000, -0.0000000000000000000 ) ) ;
#103 = CARTESIAN_POINT ( 'NONE',  ( 18.00000000000000355, 0.0000000000000000000, 0.0000000000000000000 ) ) ;
#104 = ORIENTED_EDGE ( 'NONE', *, *, #219, .F. ) ;
#105 = AXIS2_PLACEMENT_3D ( 'NONE', #82, #39, #164 ) ;
#106 = UNCERTAINTY_MEASURE_WITH_UNIT (LENGTH_MEASURE( 1.000000000000000082E-05 ), #172, 'distance_accuracy_value', 'NONE');
#107 = SURFACE_SIDE_STYLE ('',( #199 ) ) ;
#108 = CARTESIAN_POINT ( 'NONE',  ( 0.0000000000000000000, 0.0000000000000000000, 0.0000000000000000000 ) ) ;
#109 = EDGE_LOOP ( 'NONE', ( #30, #26 ) ) ;
#110 = EDGE_CURVE ( 'NONE', #208, #139, #210, .T. ) ;
#111 = CARTESIAN_POINT ( 'NONE',  ( 17.99999999999998579, 0.0000000000000000000, 0.0000000000000000000 ) ) ;
#112 = ORIENTED_EDGE ( 'NONE', *, *, #29, .T. ) ;
#113 = PLANE ( 'NONE',  #163 ) ;
#114 = EDGE_LOOP ( 'NONE', ( #24, #288, #263, #129 ) ) ;
#115 = STYLED_ITEM ( 'NONE', ( #280 ), #154 ) ;
#116 = VECTOR ( 'NONE', #217, 1000.000000000000000 ) ;
#117 = EDGE_CURVE ( 'NONE', #198, #248, #304, .T. ) ;
#118 = FILL_AREA_STYLE ('',( #7 ) ) ;
#119 = DIRECTION ( 'NONE',  ( 1.000000000000000000, -0.0000000000000000000, -0.0000000000000000000 ) ) ;
#120 = FILL_AREA_STYLE ('',( #76 ) ) ;
#121 = DIRECTION ( 'NONE',  ( 1.000000000000000000, -0.0000000000000000000, -0.0000000000000000000 ) ) ;
#122 = CIRCLE ( 'NONE', #191, 44.50000000000000000 ) ;
#123 = EDGE_CURVE ( 'NONE', #87, #139, #60, .T. ) ;
#124 = CARTESIAN_POINT ( 'NONE',  ( 17.99999999999998579, 8.143901214329898396E-15, 66.50000000000000000 ) ) ;
#125 = FACE_OUTER_BOUND ( 'NONE', #271, .T. ) ;
#126 = FACE_OUTER_BOUND ( 'NONE', #59, .T. ) ;
#127 = CARTESIAN_POINT ( 'NONE',  ( 17.99999999999998579, 0.0000000000000000000, -66.50000000000000000 ) ) ;
#128 = DIRECTION ( 'NONE',  ( 1.000000000000000000, -0.0000000000000000000, -0.0000000000000000000 ) ) ;
#129 = ORIENTED_EDGE ( 'NONE', *, *, #299, .F. ) ;
#130 = AXIS2_PLACEMENT_3D ( 'NONE', #97, #102, #75 ) ;
#131 = PRESENTATION_LAYER_ASSIGNMENT (  '', '', ( #115 ) ) ;
#132 = EDGE_CURVE ( 'NONE', #229, #308, #181, .T. ) ;
#133 = DIRECTION ( 'NONE',  ( 0.0000000000000000000, 0.0000000000000000000, -1.000000000000000000 ) ) ;
#134 = ORIENTED_EDGE ( 'NONE', *, *, #110, .F. ) ;
#135 = AXIS2_PLACEMENT_3D ( 'NONE', #310, #224, #312 ) ;
#136 = DIRECTION ( 'NONE',  ( -1.000000000000000000, 0.0000000000000000000, 0.0000000000000000000 ) ) ;
#137 = ORIENTED_EDGE ( 'NONE', *, *, #287, .F. ) ;
#138 = SURFACE_STYLE_USAGE ( .BOTH. , #107 ) ;
#139 = VERTEX_POINT ( 'NONE', #124 ) ;
#140 = CARTESIAN_POINT ( 'NONE',  ( -17.99999999999998579, 8.143901214329899974E-15, 66.50000000000000000 ) ) ;
#141 = ORIENTED_EDGE ( 'NONE', *, *, #287, .T. ) ;
#142 = CARTESIAN_POINT ( 'NONE',  ( 20.00000000000000000, 0.0000000000000000000, 0.0000000000000000000 ) ) ;
#143 = AXIS2_PLACEMENT_3D ( 'NONE', #260, #262, #303 ) ;
#144 =( NAMED_UNIT ( * ) PLANE_ANGLE_UNIT ( ) SI_UNIT ( $, .RADIAN. ) );
#145 = FACE_OUTER_BOUND ( 'NONE', #3, .T. ) ;
#146 =( LENGTH_UNIT ( ) NAMED_UNIT ( * ) SI_UNIT ( .MILLI., .METRE. ) );
#147 = ORIENTED_EDGE ( 'NONE', *, *, #232, .F. ) ;
#148 = EDGE_CURVE ( 'NONE', #229, #6, #85, .T. ) ;
#149 = PLANE ( 'NONE',  #188 ) ;
#150 = FACE_OUTER_BOUND ( 'NONE', #318, .T. ) ;
#151 = CIRCLE ( 'NONE', #143, 64.49999999999998579 ) ;
#152 =( NAMED_UNIT ( * ) SI_UNIT ( $, .STERADIAN. ) SOLID_ANGLE_UNIT ( ) );
#153 = CARTESIAN_POINT ( 'NONE',  ( 20.00000000000000000, 8.021436534415163248E-15, 64.49999999999998579 ) ) ;
#154 = MANIFOLD_SOLID_BREP ( 'Rotation1', #158 ) ;
#155 = CARTESIAN_POINT ( 'NONE',  ( 20.00000000000000000, 64.49999999999998579, 0.0000000000000000000 ) ) ;
#156 = CARTESIAN_POINT ( 'NONE',  ( 0.0000000000000000000, 0.0000000000000000000, -66.50000000000000000 ) ) ;
#157 = AXIS2_PLACEMENT_3D ( 'NONE', #50, #99, #207 ) ;
#158 = CLOSED_SHELL ( 'NONE', ( #32, #19, #216, #72, #4, #237, #61, #180, #36, #83 ) ) ;
#159 = ORIENTED_EDGE ( 'NONE', *, *, #252, .T. ) ;
#160 = EDGE_CURVE ( 'NONE', #248, #208, #245, .T. ) ;
#161 = AXIS2_PLACEMENT_3D ( 'NONE', #171, #119, #95 ) ;
#162 = PRODUCT_DEFINITION_FORMATION_WITH_SPECIFIED_SOURCE ( 'ANY', '', #62, .NOT_KNOWN. ) ;
#163 = AXIS2_PLACEMENT_3D ( 'NONE', #244, #136, #241 ) ;
#164 = DIRECTION ( 'NONE',  ( 0.0000000000000000000, 0.0000000000000000000, -1.000000000000000000 ) ) ;
#165 =( NAMED_UNIT ( * ) SI_UNIT ( $, .STERADIAN. ) SOLID_ANGLE_UNIT ( ) );
#166 = ORIENTED_EDGE ( 'NONE', *, *, #55, .T. ) ;
#167 = DIRECTION ( 'NONE',  ( 1.000000000000000000, -0.0000000000000000000, -0.0000000000000000000 ) ) ;
#168 = DIRECTION ( 'NONE',  ( 1.000000000000000000, -0.0000000000000000000, -0.0000000000000000000 ) ) ;
#169 = DIRECTION ( 'NONE',  ( 0.0000000000000000000, 1.000000000000000000, -1.224646799147353207E-16 ) ) ;
#170 = APPLICATION_PROTOCOL_DEFINITION ( 'draft international standard', 'automotive_design', 1998, #213 ) ;
#171 = CARTESIAN_POINT ( 'NONE',  ( -18.00000000000000355, 0.0000000000000000000, 0.0000000000000000000 ) ) ;
#172 =( LENGTH_UNIT ( ) NAMED_UNIT ( * ) SI_UNIT ( .MILLI., .METRE. ) );
#173 = FACE_OUTER_BOUND ( 'NONE', #174, .T. ) ;
#174 = EDGE_LOOP ( 'NONE', ( #45, #267, #90, #104 ) ) ;
#175 = AXIS2_PLACEMENT_3D ( 'NONE', #266, #307, #89 ) ;
#176 = EDGE_LOOP ( 'NONE', ( #256, #246, #230, #286 ) ) ;
#177 = AXIS2_PLACEMENT_3D ( 'NONE', #103, #240, #52 ) ;
#178 = DIRECTION ( 'NONE',  ( 1.000000000000000000, -0.0000000000000000000, -0.0000000000000000000 ) ) ;
#179 = DIRECTION ( 'NONE',  ( 1.000000000000000000, -0.0000000000000000000, -0.0000000000000000000 ) ) ;
#180 = ADVANCED_FACE ( 'NONE', ( #302, #284 ), #113, .T. ) ;
#181 = LINE ( 'NONE', #233, #48 ) ;
#182 = DIRECTION ( 'NONE',  ( 0.0000000000000000000, 0.0000000000000000000, -1.000000000000000000 ) ) ;
#183 = COLOUR_RGB ( '',0.2509803921568627416, 0.2509803921568627416, 0.2509803921568627416 ) ;
#184 =( GEOMETRIC_REPRESENTATION_CONTEXT ( 3 ) GLOBAL_UNCERTAINTY_ASSIGNED_CONTEXT ( ( #202 ) ) GLOBAL_UNIT_ASSIGNED_CONTEXT ( ( #146, #203, #152 ) ) REPRESENTATION_CONTEXT ( 'NONE', 'WORKASPACE' ) );
#185 = DIRECTION ( 'NONE',  ( 0.0000000000000000000, 0.0000000000000000000, -1.000000000000000000 ) ) ;
#186 = EDGE_CURVE ( 'NONE', #6, #229, #2, .T. ) ;
#187 = PRODUCT_DEFINITION_CONTEXT ( 'detailed design', #213, 'design' ) ;
#188 = AXIS2_PLACEMENT_3D ( 'NONE', #155, #74, #255 ) ;
#189 = DIRECTION ( 'NONE',  ( 0.0000000000000000000, 0.0000000000000000000, -1.000000000000000000 ) ) ;
#190 = CARTESIAN_POINT ( 'NONE',  ( -20.00000000000000000, 5.449678256205721193E-15, 44.50000000000000000 ) ) ;
#191 = AXIS2_PLACEMENT_3D ( 'NONE', #5, #178, #1 ) ;
#192 = CYLINDRICAL_SURFACE ( 'NONE', #47, 66.50000000000000000 ) ;
#193 = EDGE_LOOP ( 'NONE', ( #247, #137 ) ) ;
#194 = EDGE_CURVE ( 'NONE', #139, #87, #73, .T. ) ;
#195 = DIRECTION ( 'NONE',  ( 0.0000000000000000000, 0.0000000000000000000, -1.000000000000000000 ) ) ;
#196 = ORIENTED_EDGE ( 'NONE', *, *, #160, .F. ) ;
#197 = SURFACE_SIDE_STYLE ('',( #22 ) ) ;
#198 = VERTEX_POINT ( 'NONE', #13 ) ;
#199 = SURFACE_STYLE_FILL_AREA ( #120 ) ;
#200 = VECTOR ( 'NONE', #128, 1000.000000000000000 ) ;
#201 = ORIENTED_EDGE ( 'NONE', *, *, #252, .F. ) ;
#202 = UNCERTAINTY_MEASURE_WITH_UNIT (LENGTH_MEASURE( 1.000000000000000082E-05 ), #146, 'distance_accuracy_value', 'NONE');
#203 =( NAMED_UNIT ( * ) PLANE_ANGLE_UNIT ( ) SI_UNIT ( $, .RADIAN. ) );
#204 = DIRECTION ( 'NONE',  ( 0.0000000000000000000, 0.0000000000000000000, -1.000000000000000000 ) ) ;
#205 = PRODUCT_CONTEXT ( 'NONE', #297, 'mechanical' ) ;
#206 = DIRECTION ( 'NONE',  ( 0.0000000000000000000, 0.0000000000000000000, -1.000000000000000000 ) ) ;
#207 = DIRECTION ( 'NONE',  ( 0.0000000000000000000, 0.0000000000000000000, -1.000000000000000000 ) ) ;
#208 = VERTEX_POINT ( 'NONE', #140 ) ;
#209 = CIRCLE ( 'NONE', #101, 44.50000000000000000 ) ;
#210 = LINE ( 'NONE', #212, #88 ) ;
#211 = CARTESIAN_POINT ( 'NONE',  ( 0.0000000000000000000, 0.0000000000000000000, 0.0000000000000000000 ) ) ;
#212 = CARTESIAN_POINT ( 'NONE',  ( 0.0000000000000000000, 8.143901214329899974E-15, 66.50000000000000000 ) ) ;
#213 = APPLICATION_CONTEXT ( 'automotive_design' ) ;
#214 = DIRECTION ( 'NONE',  ( 0.0000000000000000000, 0.0000000000000000000, -1.000000000000000000 ) ) ;
#215 = ORIENTED_EDGE ( 'NONE', *, *, #194, .F. ) ;
#216 = ADVANCED_FACE ( 'NONE', ( #243 ), #56, .T. ) ;
#217 = DIRECTION ( 'NONE',  ( 1.000000000000000000, -0.0000000000000000000, -0.0000000000000000000 ) ) ;
#218 = DIRECTION ( 'NONE',  ( 1.000000000000000000, -0.0000000000000000000, -0.0000000000000000000 ) ) ;
#219 = EDGE_CURVE ( 'NONE', #198, #254, #264, .T. ) ;
#220 = VERTEX_POINT ( 'NONE', #43 ) ;
#221 = AXIS2_PLACEMENT_3D ( 'NONE', #57, #169, #238 ) ;
#222 = ORIENTED_EDGE ( 'NONE', *, *, #194, .T. ) ;
#223 = STYLED_ITEM ( 'NONE', ( #91 ), #17 ) ;
#224 = DIRECTION ( 'NONE',  ( 0.0000000000000000000, 0.0000000000000000000, 1.000000000000000000 ) ) ;
#225 = TOROIDAL_SURFACE ( 'NONE', #130, 64.50000000000000000, 2.000000000000000000 ) ;
#226 = CARTESIAN_POINT ( 'NONE',  ( 20.00000000000000000, 0.0000000000000000000, -64.49999999999998579 ) ) ;
#227 = AXIS2_PLACEMENT_3D ( 'NONE', #251, #121, #67 ) ;
#228 = CYLINDRICAL_SURFACE ( 'NONE', #157, 44.50000000000000000 ) ;
#229 = VERTEX_POINT ( 'NONE', #190 ) ;
#230 = ORIENTED_EDGE ( 'NONE', *, *, #123, .F. ) ;
#231 = ORIENTED_EDGE ( 'NONE', *, *, #132, .F. ) ;
#232 = EDGE_CURVE ( 'NONE', #49, #21, #151, .T. ) ;
#233 = CARTESIAN_POINT ( 'NONE',  ( 0.0000000000000000000, 5.449678256205721193E-15, 44.50000000000000000 ) ) ;
#234 = AXIS2_PLACEMENT_3D ( 'NONE', #265, #58, #195 ) ;
#235 = AXIS2_PLACEMENT_3D ( 'NONE', #27, #316, #206 ) ;
#236 = DIRECTION ( 'NONE',  ( 0.0000000000000000000, 0.0000000000000000000, -1.000000000000000000 ) ) ;
#237 = ADVANCED_FACE ( 'NONE', ( #86 ), #192, .T. ) ;
#238 = DIRECTION ( 'NONE',  ( 0.0000000000000000000, 1.224646799147349509E-16, 1.000000000000000000 ) ) ;
#239 = CIRCLE ( 'NONE', #175, 66.50000000000000000 ) ;
#240 = DIRECTION ( 'NONE',  ( 1.000000000000000000, -0.0000000000000000000, -0.0000000000000000000 ) ) ;
#241 = DIRECTION ( 'NONE',  ( 0.0000000000000000000, 0.0000000000000000000, 1.000000000000000000 ) ) ;
#242 = EDGE_CURVE ( 'NONE', #254, #208, #239, .T. ) ;
#243 = FACE_OUTER_BOUND ( 'NONE', #176, .T. ) ;
#244 = CARTESIAN_POINT ( 'NONE',  ( -20.00000000000000000, 44.50000000000000000, 0.0000000000000000000 ) ) ;
#245 = CIRCLE ( 'NONE', #221, 2.000000000000001776 ) ;
#246 = ORIENTED_EDGE ( 'NONE', *, *, #110, .T. ) ;
#247 = ORIENTED_EDGE ( 'NONE', *, *, #93, .F. ) ;
#248 = VERTEX_POINT ( 'NONE', #285 ) ;
#249 = DIRECTION ( 'NONE',  ( 0.0000000000000000000, 0.0000000000000000000, -1.000000000000000000 ) ) ;
#250 = AXIS2_PLACEMENT_3D ( 'NONE', #98, #31, #249 ) ;
#251 = CARTESIAN_POINT ( 'NONE',  ( 18.00000000000000355, 0.0000000000000000000, 0.0000000000000000000 ) ) ;
#252 = EDGE_CURVE ( 'NONE', #6, #220, #268, .T. ) ;
#253 = SHAPE_DEFINITION_REPRESENTATION ( #40, #17 ) ;
#254 = VERTEX_POINT ( 'NONE', #44 ) ;
#255 = DIRECTION ( 'NONE',  ( -0.0000000000000000000, 0.0000000000000000000, -1.000000000000000000 ) ) ;
#256 = ORIENTED_EDGE ( 'NONE', *, *, #242, .T. ) ;
#257 = ORIENTED_EDGE ( 'NONE', *, *, #232, .T. ) ;
#258 = AXIS2_PLACEMENT_3D ( 'NONE', #282, #68, #185 ) ;
#259 = AXIS2_PLACEMENT_3D ( 'NONE', #142, #10, #300 ) ;
#260 = CARTESIAN_POINT ( 'NONE',  ( 20.00000000000000000, 0.0000000000000000000, 0.0000000000000000000 ) ) ;
#261 = ORIENTED_EDGE ( 'NONE', *, *, #42, .F. ) ;
#262 = DIRECTION ( 'NONE',  ( 1.000000000000000000, -0.0000000000000000000, -0.0000000000000000000 ) ) ;
#263 = ORIENTED_EDGE ( 'NONE', *, *, #270, .F. ) ;
#264 = CIRCLE ( 'NONE', #105, 2.000000000000001776 ) ;
#265 = CARTESIAN_POINT ( 'NONE',  ( -20.00000000000000000, 0.0000000000000000000, 0.0000000000000000000 ) ) ;
#266 = CARTESIAN_POINT ( 'NONE',  ( -17.99999999999998579, 0.0000000000000000000, 0.0000000000000000000 ) ) ;
#267 = ORIENTED_EDGE ( 'NONE', *, *, #160, .T. ) ;
#268 = LINE ( 'NONE', #11, #116 ) ;
#269 = SURFACE_STYLE_USAGE ( .BOTH. , #197 ) ;
#270 = EDGE_CURVE ( 'NONE', #21, #49, #96, .T. ) ;
#271 = EDGE_LOOP ( 'NONE', ( #261, #222, #54, #147 ) ) ;
#272 =( NAMED_UNIT ( * ) SI_UNIT ( $, .STERADIAN. ) SOLID_ANGLE_UNIT ( ) );
#273 = DIRECTION ( 'NONE',  ( 0.0000000000000000000, 0.0000000000000000000, -1.000000000000000000 ) ) ;
#274 = CARTESIAN_POINT ( 'NONE',  ( 20.00000000000000000, 5.449678256205721193E-15, 44.50000000000000000 ) ) ;
#275 = DIRECTION ( 'NONE',  ( 0.0000000000000000000, 1.000000000000000000, -1.224646799147353207E-16 ) ) ;
#276 = CARTESIAN_POINT ( 'NONE',  ( -20.00000000000000000, 0.0000000000000000000, 0.0000000000000000000 ) ) ;
#277 =( GEOMETRIC_REPRESENTATION_CONTEXT ( 3 ) GLOBAL_UNCERTAINTY_ASSIGNED_CONTEXT ( ( #106 ) ) GLOBAL_UNIT_ASSIGNED_CONTEXT ( ( #172, #144, #272 ) ) REPRESENTATION_CONTEXT ( 'NONE', 'WORKASPACE' ) );
#278 = AXIS2_PLACEMENT_3D ( 'NONE', #276, #290, #204 ) ;
#279 = CARTESIAN_POINT ( 'NONE',  ( -17.99999999999998579, 0.0000000000000000000, 0.0000000000000000000 ) ) ;
#280 = PRESENTATION_STYLE_ASSIGNMENT (( #138 ) ) ;
#281 = DIRECTION ( 'NONE',  ( 1.000000000000000000, -0.0000000000000000000, -0.0000000000000000000 ) ) ;
#282 = CARTESIAN_POINT ( 'NONE',  ( 18.00000000000000355, 0.0000000000000000000, -64.50000000000000000 ) ) ;
#283 = TOROIDAL_SURFACE ( 'NONE', #177, 64.50000000000000000, 2.000000000000000000 ) ;
#284 = FACE_OUTER_BOUND ( 'NONE', #28, .T. ) ;
#285 = CARTESIAN_POINT ( 'NONE',  ( -20.00000000000000000, 8.021436534415163248E-15, 64.49999999999998579 ) ) ;
#286 = ORIENTED_EDGE ( 'NONE', *, *, #55, .F. ) ;
#287 = EDGE_CURVE ( 'NONE', #308, #220, #209, .T. ) ;
#288 = ORIENTED_EDGE ( 'NONE', *, *, #42, .T. ) ;
#289 = PRODUCT_RELATED_PRODUCT_CATEGORY ( 'part', '', ( #62 ) ) ;
#290 = DIRECTION ( 'NONE',  ( 1.000000000000000000, -0.0000000000000000000, -0.0000000000000000000 ) ) ;
#291 = UNCERTAINTY_MEASURE_WITH_UNIT (LENGTH_MEASURE( 1.000000000000000082E-05 ), #63, 'distance_accuracy_value', 'NONE');
#292 = CARTESIAN_POINT ( 'NONE',  ( 18.00000000000000355, 7.898971854500428100E-15, 64.50000000000000000 ) ) ;
#293 = PRESENTATION_LAYER_ASSIGNMENT (  '', '', ( #223 ) ) ;
#294 = FACE_BOUND ( 'NONE', #193, .T. ) ;
#295 = AXIS2_PLACEMENT_3D ( 'NONE', #111, #167, #214 ) ;
#296 = CYLINDRICAL_SURFACE ( 'NONE', #8, 44.50000000000000000 ) ;
#297 = APPLICATION_CONTEXT ( 'automotive_design' ) ;
#298 = MECHANICAL_DESIGN_GEOMETRIC_PRESENTATION_REPRESENTATION (  '', ( #115 ), #306 ) ;
#299 = EDGE_CURVE ( 'NONE', #87, #21, #33, .T. ) ;
#300 = DIRECTION ( 'NONE',  ( 0.0000000000000000000, 0.0000000000000000000, -1.000000000000000000 ) ) ;
#301 = CARTESIAN_POINT ( 'NONE',  ( 20.00000000000000000, 0.0000000000000000000, 0.0000000000000000000 ) ) ;
#302 = FACE_BOUND ( 'NONE', #109, .T. ) ;
#303 = DIRECTION ( 'NONE',  ( 0.0000000000000000000, 0.0000000000000000000, -1.000000000000000000 ) ) ;
#304 = CIRCLE ( 'NONE', #53, 64.49999999999998579 ) ;
#305 = ORIENTED_EDGE ( 'NONE', *, *, #270, .T. ) ;
#306 =( GEOMETRIC_REPRESENTATION_CONTEXT ( 3 ) GLOBAL_UNCERTAINTY_ASSIGNED_CONTEXT ( ( #291 ) ) GLOBAL_UNIT_ASSIGNED_CONTEXT ( ( #63, #15, #165 ) ) REPRESENTATION_CONTEXT ( 'NONE', 'WORKASPACE' ) );
#307 = DIRECTION ( 'NONE',  ( 1.000000000000000000, -0.0000000000000000000, -0.0000000000000000000 ) ) ;
#308 = VERTEX_POINT ( 'NONE', #274 ) ;
#309 = PRODUCT_DEFINITION ( 'UNKNOWN', '', #162, #187 ) ;
#310 = CARTESIAN_POINT ( 'NONE',  ( 0.0000000000000000000, 0.0000000000000000000, 0.0000000000000000000 ) ) ;
#311 = ORIENTED_EDGE ( 'NONE', *, *, #117, .F. ) ;
#312 = DIRECTION ( 'NONE',  ( 1.000000000000000000, 0.0000000000000000000, 0.0000000000000000000 ) ) ;
#313 = DIRECTION ( 'NONE',  ( 0.0000000000000000000, 1.224646799147349509E-16, 1.000000000000000000 ) ) ;
#314 = CIRCLE ( 'NONE', #278, 64.49999999999998579 ) ;
#315 = TOROIDAL_SURFACE ( 'NONE', #227, 64.50000000000000000, 2.000000000000000000 ) ;
#316 = DIRECTION ( 'NONE',  ( 1.000000000000000000, -0.0000000000000000000, -0.0000000000000000000 ) ) ;
#317 = ORIENTED_EDGE ( 'NONE', *, *, #186, .F. ) ;
#318 = EDGE_LOOP ( 'NONE', ( #231, #317, #159, #84 ) ) ;
ENDSEC;
END-ISO-10303-21;
