ISO-10303-21;
HEADER;
FILE_DESCRIPTION (( 'STEP AP214' ),
    '1' );
FILE_NAME ('0022452-KR-OT-25.STEP',
    '2017-08-18T11:43:06',
    ( '' ),
    ( '' ),
    'SwSTEP 2.0',
    'SolidWorks 2016',
    '' );
FILE_SCHEMA (( 'AUTOMOTIVE_DESIGN' ));
ENDSEC;

DATA;
#1 = EDGE_CURVE ( 'NONE', #223, #223, #266, .T. ) ;
#2 = DIRECTION ( 'NONE',  ( 0.0000000000000000000, -0.0000000000000000000, -1.000000000000000000 ) ) ;
#3 = EDGE_CURVE ( 'NONE', #225, #225, #265, .T. ) ;
#4 = DIRECTION ( 'NONE',  ( -1.559302000909474700E-016, 1.000000000000000000, -1.559302000909474700E-016 ) ) ;
#5 = PRESENTATION_STYLE_ASSIGNMENT (( #232 ) ) ;
#6 = EDGE_LOOP ( 'NONE', ( #66 ) ) ;
#7 = EDGE_LOOP ( 'NONE', ( #324 ) ) ;
#8 = DIRECTION ( 'NONE',  ( -1.000000000000000000, -1.563423241738530300E-016, 0.0000000000000000000 ) ) ;
#9 = ADVANCED_FACE ( 'NONE', ( #252, #260 ), #287, .F. ) ;
#10 = CARTESIAN_POINT ( 'NONE',  ( -5.913141599999976100E-016, 6.099999999999959700, 0.0000000000000000000 ) ) ;
#11 = ADVANCED_FACE ( 'NONE', ( #175, #15 ), #246, .F. ) ;
#12 = DIRECTION ( 'NONE',  ( 1.206764000000000000E-016, -1.000000000000000000, -0.0000000000000000000 ) ) ;
#13 = CARTESIAN_POINT ( 'NONE',  ( -17.70000000000000300, 6.936960895172256300, 0.0000000000000000000 ) ) ;
#14 = DIRECTION ( 'NONE',  ( -1.000000000000000000, -1.169476500658521200E-016, 0.0000000000000000000 ) ) ;
#15 = FACE_OUTER_BOUND ( 'NONE', #36, .T. ) ;
#16 = PRESENTATION_STYLE_ASSIGNMENT (( #90 ) ) ;
#17 = PLANE ( 'NONE',  #288 ) ;
#18 =( GEOMETRIC_REPRESENTATION_CONTEXT ( 3 ) GLOBAL_UNCERTAINTY_ASSIGNED_CONTEXT ( ( #310 ) ) GLOBAL_UNIT_ASSIGNED_CONTEXT ( ( #292, #210, #213 ) ) REPRESENTATION_CONTEXT ( 'NONE', 'WORKASPACE' ) );
#19 = EDGE_CURVE ( 'NONE', #238, #238, #231, .T. ) ;
#20 = ADVANCED_FACE ( 'NONE', ( #113, #186 ), #271, .T. ) ;
#21 = FACE_OUTER_BOUND ( 'NONE', #6, .T. ) ;
#22 = CARTESIAN_POINT ( 'NONE',  ( -6.923159238850824900E-016, 6.936960895172258100, 0.0000000000000000000 ) ) ;
#23 = ORIENTED_EDGE ( 'NONE', *, *, #19, .T. ) ;
#24 = ADVANCED_FACE ( 'NONE', ( #229 ), #105, .T. ) ;
#25 = EDGE_LOOP ( 'NONE', ( #39 ) ) ;
#26 = ADVANCED_FACE ( 'NONE', ( #156, #237 ), #46, .T. ) ;
#27 = FILL_AREA_STYLE_COLOUR ( '', #31 ) ;
#28 = ORIENTED_EDGE ( 'NONE', *, *, #165, .F. ) ;
#29 = ORIENTED_EDGE ( 'NONE', *, *, #142, .T. ) ;
#30 = CARTESIAN_POINT ( 'NONE',  ( -10.62499999999999600, -28.70000000000000300, 0.0000000000000000000 ) ) ;
#31 = COLOUR_RGB ( '',0.5019607843137254800, 0.5019607843137254800, 0.5019607843137254800 ) ;
#32 = ORIENTED_EDGE ( 'NONE', *, *, #3, .T. ) ;
#33 = CARTESIAN_POINT ( 'NONE',  ( -6.726408605778546800E-016, 6.773921790344542300, 0.0000000000000000000 ) ) ;
#34 = DIRECTION ( 'NONE',  ( -1.000000000000000000, -1.563423241738530300E-016, 0.0000000000000000000 ) ) ;
#35 = DIRECTION ( 'NONE',  ( -1.206764000000000000E-016, 1.000000000000000000, 0.0000000000000000000 ) ) ;
#36 = EDGE_LOOP ( 'NONE', ( #174 ) ) ;
#37 = EDGE_CURVE ( 'NONE', #257, #257, #273, .T. ) ;
#38 = DIRECTION ( 'NONE',  ( 1.206764000000000000E-016, -1.000000000000000000, -0.0000000000000000000 ) ) ;
#39 = ORIENTED_EDGE ( 'NONE', *, *, #280, .T. ) ;
#40 = DIRECTION ( 'NONE',  ( -1.000000000000000000, -9.800697604388738800E-017, 0.0000000000000000000 ) ) ;
#41 = EDGE_CURVE ( 'NONE', #235, #235, #281, .T. ) ;
#42 = EDGE_LOOP ( 'NONE', ( #162 ) ) ;
#43 = APPLICATION_CONTEXT ( 'automotive_design' ) ;
#44 = CARTESIAN_POINT ( 'NONE',  ( 3.625377152184500500E-015, -28.70000000044872500, 1.559302002308875200E-016 ) ) ;
#45 = DIRECTION ( 'NONE',  ( 0.0000000000000000000, 0.0000000000000000000, 1.000000000000000000 ) ) ;
#46 = CYLINDRICAL_SURFACE ( 'NONE', #263, 22.25000000000000700 ) ;
#47 = ADVANCED_FACE ( 'NONE', ( #49, #289 ), #205, .T. ) ;
#48 = APPLICATION_PROTOCOL_DEFINITION ( 'draft international standard', 'automotive_design', 1998, #43 ) ;
#49 = FACE_OUTER_BOUND ( 'NONE', #337, .T. ) ;
#50 = PRODUCT_CONTEXT ( 'NONE', #233, 'mechanical' ) ;
#51 = CARTESIAN_POINT ( 'NONE',  ( -6.923159238850827900E-016, 6.936960895172258100, 0.0000000000000000000 ) ) ;
#52 = DIRECTION ( 'NONE',  ( -1.000000000000000000, -9.773090005515489700E-017, 0.0000000000000000000 ) ) ;
#53 = DIRECTION ( 'NONE',  ( -1.559302000909474700E-016, 1.000000000000000000, -1.559302000909474700E-016 ) ) ;
#54 = AXIS2_PLACEMENT_3D ( 'NONE', #147, #264, #52 ) ;
#55 = ORIENTED_EDGE ( 'NONE', *, *, #114, .T. ) ;
#56 = CARTESIAN_POINT ( 'NONE',  ( -22.25000000000000700, 6.099999999999957000, 0.0000000000000000000 ) ) ;
#57 = FACE_OUTER_BOUND ( 'NONE', #333, .T. ) ;
#58 = ADVANCED_FACE ( 'NONE', ( #303, #204 ), #195, .T. ) ;
#59 = DIRECTION ( 'NONE',  ( 1.000000000000000000, 9.856383386244420200E-017, 0.0000000000000000000 ) ) ;
#60 = PLANE ( 'NONE',  #290 ) ;
#61 = SPHERICAL_SURFACE ( 'NONE', #259, 12.69999999999999600 ) ;
#62 = AXIS2_PLACEMENT_3D ( 'NONE', #124, #125, #126 ) ;
#63 = DIRECTION ( 'NONE',  ( -1.000000000000000000, -1.563423241738530300E-016, 0.0000000000000000000 ) ) ;
#64 = ORIENTED_EDGE ( 'NONE', *, *, #41, .T. ) ;
#65 = ADVANCED_FACE ( 'NONE', ( #197 ), #61, .T. ) ;
#66 = ORIENTED_EDGE ( 'NONE', *, *, #321, .F. ) ;
#67 = DIRECTION ( 'NONE',  ( 0.0000000000000000000, -0.0000000000000000000, 1.000000000000000000 ) ) ;
#68 = DIRECTION ( 'NONE',  ( 3.185630114178786700E-016, 0.8798081493201800300, 0.4753289601842073900 ) ) ;
#69 = PLANE ( 'NONE',  #306 ) ;
#70 = DIRECTION ( 'NONE',  ( 1.206764000000000000E-016, -1.000000000000000000, -0.0000000000000000000 ) ) ;
#71 = CARTESIAN_POINT ( 'NONE',  ( 5.298002707938132200E-032, 7.100000000022440400, -1.059600541587626500E-032 ) ) ;
#72 = ADVANCED_FACE ( 'NONE', ( #270, #283 ), #193, .F. ) ;
#73 = EDGE_LOOP ( 'NONE', ( #64 ) ) ;
#74 = FILL_AREA_STYLE ('',( #27 ) ) ;
#75 = DIRECTION ( 'NONE',  ( 0.0000000000000000000, -1.000000000000000000, 0.0000000000000000000 ) ) ;
#76 = COLOUR_RGB ( '',0.5019607843137254800, 0.5019607843137254800, 0.5019607843137254800 ) ;
#77 = DIRECTION ( 'NONE',  ( -1.000000000000000000, -1.559302000878028500E-016, 0.0000000000000000000 ) ) ;
#78 = DIRECTION ( 'NONE',  ( -1.000000000000000000, -9.856383386231853900E-017, 0.0000000000000000000 ) ) ;
#79 = DIRECTION ( 'NONE',  ( 0.0000000000000000000, -0.0000000000000000000, -1.000000000000000000 ) ) ;
#80 = DIRECTION ( 'NONE',  ( -1.221636250689436200E-016, 1.000000000000000000, 2.443272501378872400E-017 ) ) ;
#81 = DIRECTION ( 'NONE',  ( -1.000000000000000000, -9.773090005515489700E-017, 0.0000000000000000000 ) ) ;
#82 = DIRECTION ( 'NONE',  ( 1.169476500682106900E-016, -1.000000000000000000, -1.949127501136843700E-017 ) ) ;
#83 = CARTESIAN_POINT ( 'NONE',  ( -1.169476501731697700E-016, 7.100000000448727800, 1.949127502886161500E-017 ) ) ;
#84 = DIRECTION ( 'NONE',  ( -1.000000000000000000, -9.800697604388738800E-017, 0.0000000000000000000 ) ) ;
#85 = AXIS2_PLACEMENT_3D ( 'NONE', #128, #130, #131 ) ;
#86 = EDGE_LOOP ( 'NONE', ( #331 ) ) ;
#87 =( LENGTH_UNIT ( ) NAMED_UNIT ( * ) SI_UNIT ( .MILLI., .METRE. ) );
#88 = DIRECTION ( 'NONE',  ( 1.206764000000000000E-016, -1.000000000000000000, -0.0000000000000000000 ) ) ;
#89 = SURFACE_SIDE_STYLE ('',( #250 ) ) ;
#90 = SURFACE_STYLE_USAGE ( .BOTH. , #89 ) ;
#91 = DIRECTION ( 'NONE',  ( 0.0000000000000000000, -1.000000000000000000, 0.0000000000000000000 ) ) ;
#92 = ADVANCED_FACE ( 'NONE', ( #293, #57 ), #276, .F. ) ;
#93 = DIRECTION ( 'NONE',  ( 0.0000000000000000000, 1.000000000000000000, 0.0000000000000000000 ) ) ;
#94 = EDGE_LOOP ( 'NONE', ( #334 ) ) ;
#95 = EDGE_LOOP ( 'NONE', ( #320 ) ) ;
#96 = CARTESIAN_POINT ( 'NONE',  ( 3.625377152184500500E-015, -28.70000000044872100, 21.25000000044873300 ) ) ;
#97 = CARTESIAN_POINT ( 'NONE',  ( -10.88990358084038100, 7.099999999999995200, 0.0000000000000000000 ) ) ;
#98 = CARTESIAN_POINT ( 'NONE',  ( 17.55000000002244300, 7.100000000022437700, 1.232047924386310900E-018 ) ) ;
#99 = ADVANCED_FACE ( 'NONE', ( #179, #262 ), #167, .T. ) ;
#100 = DIRECTION ( 'NONE',  ( 1.000000000000000000, 9.884464250567456900E-017, 0.0000000000000000000 ) ) ;
#101 = CARTESIAN_POINT ( 'NONE',  ( -10.88990358084038100, 6.773921790344540600, 0.0000000000000000000 ) ) ;
#102 = CARTESIAN_POINT ( 'NONE',  ( -11.09567409301009600, 6.178674325589962100, 0.0000000000000000000 ) ) ;
#103 = CIRCLE ( 'NONE', #247, 17.70000000000000300 ) ;
#104 = ADVANCED_FACE ( 'NONE', ( #191, #208 ), #60, .T. ) ;
#105 = PLANE ( 'NONE',  #315 ) ;
#106 = DIRECTION ( 'NONE',  ( 1.000000000000000000, 1.224510688898947200E-016, 0.0000000000000000000 ) ) ;
#107 = EDGE_LOOP ( 'NONE', ( #212 ) ) ;
#108 = CARTESIAN_POINT ( 'NONE',  ( -6.991365000000000000E-016, 6.993480447586131600, 0.0000000000000000000 ) ) ;
#109 = CARTESIAN_POINT ( 'NONE',  ( 4.504659623841739000E-047, 6.099999999551239500, -7.507766039736226700E-048 ) ) ;
#110 = DIRECTION ( 'NONE',  ( -1.206764000000000000E-016, 1.000000000000000000, 0.0000000000000000000 ) ) ;
#111 = DIRECTION ( 'NONE',  ( 1.000000000000000000, 1.169476500682106700E-016, 0.0000000000000000000 ) ) ;
#112 = DIRECTION ( 'NONE',  ( 1.169476500682106900E-016, -1.000000000000000000, -1.949127501136843700E-017 ) ) ;
#113 = FACE_BOUND ( 'NONE', #242, .T. ) ;
#114 = EDGE_CURVE ( 'NONE', #282, #282, #103, .T. ) ;
#115 = CARTESIAN_POINT ( 'NONE',  ( -17.65000000000000600, 6.936960895172256300, 0.0000000000000000000 ) ) ;
#116 = CARTESIAN_POINT ( 'NONE',  ( 3.487548159999997200E-015, -27.69999999999999900, 0.0000000000000000000 ) ) ;
#117 = CARTESIAN_POINT ( 'NONE',  ( -17.74999999997756800, 7.100000000022439500, -2.119201083175253000E-032 ) ) ;
#118 = APPLICATION_PROTOCOL_DEFINITION ( 'draft international standard', 'automotive_design', 1998, #233 ) ;
#119 = MANIFOLD_SOLID_BREP ( 'Importiert1', #307 ) ;
#120 = CARTESIAN_POINT ( 'NONE',  ( -17.70000000000000300, 7.050000000000000700, 0.0000000000000000000 ) ) ;
#121 = ADVANCED_FACE ( 'NONE', ( #21, #199 ), #69, .F. ) ;
#122 = ORIENTED_EDGE ( 'NONE', *, *, #1, .T. ) ;
#123 = CARTESIAN_POINT ( 'NONE',  ( 0.0000000000000000000, 0.0000000000000000000, 0.0000000000000000000 ) ) ;
#124 = CARTESIAN_POINT ( 'NONE',  ( -7.059570761149169100E-016, 7.049999999999997200, 0.0000000000000000000 ) ) ;
#125 = DIRECTION ( 'NONE',  ( 1.206764000000000000E-016, -1.000000000000000000, -0.0000000000000000000 ) ) ;
#126 = DIRECTION ( 'NONE',  ( -1.000000000000000000, -9.856383386231853900E-017, 0.0000000000000000000 ) ) ;
#127 = CARTESIAN_POINT ( 'NONE',  ( 21.25000000044873300, 7.100000000448729600, 1.949127502886161500E-017 ) ) ;
#128 = CARTESIAN_POINT ( 'NONE',  ( -7.119908722298327900E-016, 7.099999999999997000, 0.0000000000000000000 ) ) ;
#129 =( NAMED_UNIT ( * ) SI_UNIT ( $, .STERADIAN. ) SOLID_ANGLE_UNIT ( ) );
#130 = DIRECTION ( 'NONE',  ( 1.206764000000000000E-016, -1.000000000000000000, -0.0000000000000000000 ) ) ;
#131 = DIRECTION ( 'NONE',  ( -1.000000000000000000, -1.592964954280097800E-016, 0.0000000000000000000 ) ) ;
#132 = PRESENTATION_LAYER_ASSIGNMENT (  '', '', ( #308 ) ) ;
#133 = CARTESIAN_POINT ( 'NONE',  ( -11.09567409301009600, 6.773921790344540600, 0.0000000000000000000 ) ) ;
#134 = CARTESIAN_POINT ( 'NONE',  ( -6.726409277701671600E-016, 6.773921790344542300, 0.0000000000000000000 ) ) ;
#135 = ADVANCED_BREP_SHAPE_REPRESENTATION ( '0022452-KR-OT-25', ( #119, #253 ), #215 ) ;
#136 =( NAMED_UNIT ( * ) PLANE_ANGLE_UNIT ( ) SI_UNIT ( $, .RADIAN. ) );
#137 = DIRECTION ( 'NONE',  ( -1.206764000000000000E-016, 1.000000000000000000, 0.0000000000000000000 ) ) ;
#138 = DIRECTION ( 'NONE',  ( 0.0000000000000000000, -0.0000000000000000000, -1.000000000000000000 ) ) ;
#139 = DIRECTION ( 'NONE',  ( -1.000000000000000000, -1.592964954280097800E-016, 0.0000000000000000000 ) ) ;
#140 = EDGE_LOOP ( 'NONE', ( #29 ) ) ;
#141 = CIRCLE ( 'NONE', #222, 10.88990358084038100 ) ;
#142 = EDGE_CURVE ( 'NONE', #219, #219, #217, .T. ) ;
#143 = DIRECTION ( 'NONE',  ( -1.206764000000000000E-016, 1.000000000000000000, 0.0000000000000000000 ) ) ;
#144 = CARTESIAN_POINT ( 'NONE',  ( 0.0000000000000000000, 7.049999999977560900, 0.0000000000000000000 ) ) ;
#145 = DIRECTION ( 'NONE',  ( 0.0000000000000000000, -1.000000000000000000, 0.0000000000000000000 ) ) ;
#146 = CARTESIAN_POINT ( 'NONE',  ( -17.60000000000000100, 7.100000000011217300, 0.0000000000000000000 ) ) ;
#147 = CARTESIAN_POINT ( 'NONE',  ( 1.059600541587626400E-031, 7.100000000022440400, -2.119201083175253000E-032 ) ) ;
#148 = CARTESIAN_POINT ( 'NONE',  ( -4.928191697545243700E-018, 7.100000000022435900, 1.232047924386310900E-018 ) ) ;
#149 = CARTESIAN_POINT ( 'NONE',  ( -17.60000000000000900, 6.936960895172256300, 0.0000000000000000000 ) ) ;
#150 = AXIS2_PLACEMENT_3D ( 'NONE', #71, #80, #81 ) ;
#151 = DIRECTION ( 'NONE',  ( 9.856383386244419000E-017, -1.000000000000000000, -2.464095846561104700E-017 ) ) ;
#152 = FILL_AREA_STYLE_COLOUR ( '', #76 ) ;
#153 = DIRECTION ( 'NONE',  ( -1.000000000000000000, -9.800697604388738800E-017, 0.0000000000000000000 ) ) ;
#154 = PRODUCT_DEFINITION_SHAPE ( 'NONE', 'NONE',  #224 ) ;
#155 = ADVANCED_FACE ( 'NONE', ( #236, #285 ), #249, .T. ) ;
#156 = FACE_OUTER_BOUND ( 'NONE', #107, .T. ) ;
#157 = EDGE_LOOP ( 'NONE', ( #305 ) ) ;
#158 = AXIS2_PLACEMENT_3D ( 'NONE', #116, #143, #261 ) ;
#159 = ORIENTED_EDGE ( 'NONE', *, *, #37, .T. ) ;
#160 = CIRCLE ( 'NONE', #220, 17.55000000002244300 ) ;
#161 = DIRECTION ( 'NONE',  ( -1.206764000000000000E-016, 1.000000000000000000, 0.0000000000000000000 ) ) ;
#162 = ORIENTED_EDGE ( 'NONE', *, *, #1, .F. ) ;
#163 = AXIS2_PLACEMENT_3D ( 'NONE', #22, #35, #40 ) ;
#164 =( LENGTH_UNIT ( ) NAMED_UNIT ( * ) SI_UNIT ( .MILLI., .METRE. ) );
#165 = EDGE_CURVE ( 'NONE', #221, #221, #274, .T. ) ;
#166 = ORIENTED_EDGE ( 'NONE', *, *, #3, .F. ) ;
#167 = PLANE ( 'NONE',  #183 ) ;
#168 = CARTESIAN_POINT ( 'NONE',  ( -10.99278883692523900, 6.773921790344540600, 0.0000000000000000000 ) ) ;
#169 = CARTESIAN_POINT ( 'NONE',  ( -7.059570761149172100E-016, 7.050000000000002500, 0.0000000000000000000 ) ) ;
#170 = AXIS2_PLACEMENT_3D ( 'NONE', #83, #82, #106 ) ;
#171 = EDGE_LOOP ( 'NONE', ( #181 ) ) ;
#172 = EDGE_LOOP ( 'NONE', ( #159 ) ) ;
#173 = PRODUCT ( '0022452-KR-OT-25', '0022452-KR-OT-25', '', ( #50 ) ) ;
#174 = ORIENTED_EDGE ( 'NONE', *, *, #114, .F. ) ;
#175 = FACE_OUTER_BOUND ( 'NONE', #157, .T. ) ;
#176 = VERTEX_POINT ( 'NONE', #98 ) ;
#177 = DIRECTION ( 'NONE',  ( 0.0000000000000000000, 1.559302000909474700E-016, 1.000000000000000000 ) ) ;
#178 = CARTESIAN_POINT ( 'NONE',  ( 3.469446951953613000E-015, -27.69999999955127400, 5.409915574230548800E-031 ) ) ;
#179 = FACE_OUTER_BOUND ( 'NONE', #267, .T. ) ;
#180 = CARTESIAN_POINT ( 'NONE',  ( -6.008085394221453500E-016, 6.178674325589963900, 0.0000000000000000000 ) ) ;
#181 = ORIENTED_EDGE ( 'NONE', *, *, #277, .F. ) ;
#182 = EDGE_CURVE ( 'NONE', #255, #255, #243, .T. ) ;
#183 = AXIS2_PLACEMENT_3D ( 'NONE', #304, #319, #67 ) ;
#184 = ORIENTED_EDGE ( 'NONE', *, *, #296, .T. ) ;
#185 = EDGE_CURVE ( 'NONE', #326, #326, #211, .T. ) ;
#186 = FACE_OUTER_BOUND ( 'NONE', #313, .T. ) ;
#187 = FILL_AREA_STYLE ('',( #152 ) ) ;
#188 = AXIS2_PLACEMENT_3D ( 'NONE', #323, #314, #297 ) ;
#189 = DIRECTION ( 'NONE',  ( 0.0000000000000000000, -0.0000000000000000000, 1.000000000000000000 ) ) ;
#190 = CARTESIAN_POINT ( 'NONE',  ( -17.60000000000000900, 7.049999999999995400, 0.0000000000000000000 ) ) ;
#191 = FACE_OUTER_BOUND ( 'NONE', #203, .T. ) ;
#192 = DIRECTION ( 'NONE',  ( -1.206764000000000000E-016, 1.000000000000000000, 0.0000000000000000000 ) ) ;
#193 = CYLINDRICAL_SURFACE ( 'NONE', #188, 10.88990358084038100 ) ;
#194 =( NAMED_UNIT ( * ) PLANE_ANGLE_UNIT ( ) SI_UNIT ( $, .RADIAN. ) );
#195 = CYLINDRICAL_SURFACE ( 'NONE', #330, 17.60000000000000900 ) ;
#196 = CARTESIAN_POINT ( 'NONE',  ( 1.448117000000000100E-015, -10.80000000000002200, 0.0000000000000000000 ) ) ;
#197 = FACE_OUTER_BOUND ( 'NONE', #172, .T. ) ;
#198 = AXIS2_PLACEMENT_3D ( 'NONE', #51, #70, #78 ) ;
#199 = FACE_BOUND ( 'NONE', #25, .T. ) ;
#200 = EDGE_LOOP ( 'NONE', ( #325 ) ) ;
#201 = CIRCLE ( 'NONE', #85, 10.88990358084038100 ) ;
#202 = PRODUCT_DEFINITION_CONTEXT ( 'detailed design', #43, 'design' ) ;
#203 = EDGE_LOOP ( 'NONE', ( #23 ) ) ;
#204 = FACE_OUTER_BOUND ( 'NONE', #42, .T. ) ;
#205 = CONICAL_SURFACE ( 'NONE', #336, 22.24999999955129200, 0.7853981625000030500 ) ;
#206 =( GEOMETRIC_REPRESENTATION_CONTEXT ( 3 ) GLOBAL_UNCERTAINTY_ASSIGNED_CONTEXT ( ( #269 ) ) GLOBAL_UNIT_ASSIGNED_CONTEXT ( ( #87, #194, #335 ) ) REPRESENTATION_CONTEXT ( 'NONE', 'WORKASPACE' ) );
#207 = FACE_BOUND ( 'NONE', #318, .T. ) ;
#208 = FACE_BOUND ( 'NONE', #301, .T. ) ;
#209 = PRODUCT_RELATED_PRODUCT_CATEGORY ( 'part', '', ( #173 ) ) ;
#210 =( NAMED_UNIT ( * ) PLANE_ANGLE_UNIT ( ) SI_UNIT ( $, .RADIAN. ) );
#211 = CIRCLE ( 'NONE', #158, 22.25000000000000700 ) ;
#212 = ORIENTED_EDGE ( 'NONE', *, *, #165, .T. ) ;
#213 =( NAMED_UNIT ( * ) SI_UNIT ( $, .STERADIAN. ) SOLID_ANGLE_UNIT ( ) );
#214 = ORIENTED_EDGE ( 'NONE', *, *, #185, .F. ) ;
#215 =( GEOMETRIC_REPRESENTATION_CONTEXT ( 3 ) GLOBAL_UNCERTAINTY_ASSIGNED_CONTEXT ( ( #240 ) ) GLOBAL_UNIT_ASSIGNED_CONTEXT ( ( #164, #136, #129 ) ) REPRESENTATION_CONTEXT ( 'NONE', 'WORKASPACE' ) );
#216 = SURFACE_STYLE_FILL_AREA ( #187 ) ;
#217 = CIRCLE ( 'NONE', #54, 17.74999999997756800 ) ;
#218 = PRODUCT_DEFINITION_FORMATION_WITH_SPECIFIED_SOURCE ( 'ANY', '', #173, .NOT_KNOWN. ) ;
#219 = VERTEX_POINT ( 'NONE', #117 ) ;
#220 = AXIS2_PLACEMENT_3D ( 'NONE', #148, #151, #100 ) ;
#221 = VERTEX_POINT ( 'NONE', #56 ) ;
#222 = AXIS2_PLACEMENT_3D ( 'NONE', #134, #137, #139 ) ;
#223 = VERTEX_POINT ( 'NONE', #149 ) ;
#224 = PRODUCT_DEFINITION ( 'UNKNOWN', '', #218, #202 ) ;
#225 = VERTEX_POINT ( 'NONE', #127 ) ;
#226 = SURFACE_SIDE_STYLE ('',( #216 ) ) ;
#227 = VERTEX_POINT ( 'NONE', #190 ) ;
#228 = SHAPE_DEFINITION_REPRESENTATION ( #154, #135 ) ;
#229 = FACE_OUTER_BOUND ( 'NONE', #286, .T. ) ;
#230 = AXIS2_PLACEMENT_3D ( 'NONE', #10, #12, #14 ) ;
#231 = CIRCLE ( 'NONE', #284, 11.09567409301009600 ) ;
#232 = SURFACE_STYLE_USAGE ( .BOTH. , #226 ) ;
#233 = APPLICATION_CONTEXT ( 'automotive_design' ) ;
#234 = AXIS2_PLACEMENT_3D ( 'NONE', #339, #316, #63 ) ;
#235 = VERTEX_POINT ( 'NONE', #96 ) ;
#236 = FACE_BOUND ( 'NONE', #239, .T. ) ;
#237 = FACE_OUTER_BOUND ( 'NONE', #327, .T. ) ;
#238 = VERTEX_POINT ( 'NONE', #133 ) ;
#239 = EDGE_LOOP ( 'NONE', ( #300 ) ) ;
#240 = UNCERTAINTY_MEASURE_WITH_UNIT (LENGTH_MEASURE( 1.000000000000000100E-005 ), #164, 'distance_accuracy_value', 'NONE');
#241 = STYLED_ITEM ( 'NONE', ( #5 ), #135 ) ;
#242 = EDGE_LOOP ( 'NONE', ( #32 ) ) ;
#243 = CIRCLE ( 'NONE', #163, 17.70000000000000300 ) ;
#244 = ORIENTED_EDGE ( 'NONE', *, *, #185, .T. ) ;
#245 = VERTEX_POINT ( 'NONE', #97 ) ;
#246 = CYLINDRICAL_SURFACE ( 'NONE', #275, 17.70000000000000300 ) ;
#247 = AXIS2_PLACEMENT_3D ( 'NONE', #169, #88, #153 ) ;
#248 = MECHANICAL_DESIGN_GEOMETRIC_PRESENTATION_REPRESENTATION (  '', ( #241 ), #18 ) ;
#249 = CONICAL_SURFACE ( 'NONE', #295, 17.59999999997757000, 0.7853981624999804000 ) ;
#250 = SURFACE_STYLE_FILL_AREA ( #74 ) ;
#251 = ADVANCED_FACE ( 'NONE', ( #291, #207 ), #17, .T. ) ;
#252 = FACE_BOUND ( 'NONE', #329, .T. ) ;
#253 = AXIS2_PLACEMENT_3D ( 'NONE', #123, #45, #332 ) ;
#254 = PRESENTATION_LAYER_ASSIGNMENT (  '', '', ( #241 ) ) ;
#255 = VERTEX_POINT ( 'NONE', #13 ) ;
#256 = DIRECTION ( 'NONE',  ( 0.0000000000000000000, 1.632680918531929600E-016, 1.000000000000000000 ) ) ;
#257 = VERTEX_POINT ( 'NONE', #102 ) ;
#258 = EDGE_LOOP ( 'NONE', ( #298 ) ) ;
#259 = AXIS2_PLACEMENT_3D ( 'NONE', #317, #68, #311 ) ;
#260 = FACE_OUTER_BOUND ( 'NONE', #86, .T. ) ;
#261 = DIRECTION ( 'NONE',  ( -1.000000000000000000, -1.559302000878028500E-016, 0.0000000000000000000 ) ) ;
#262 = FACE_BOUND ( 'NONE', #140, .T. ) ;
#263 = AXIS2_PLACEMENT_3D ( 'NONE', #196, #192, #77 ) ;
#264 = DIRECTION ( 'NONE',  ( 1.221636250689436200E-016, -1.000000000000000000, -2.443272501378872400E-017 ) ) ;
#265 = CIRCLE ( 'NONE', #170, 21.25000000044873300 ) ;
#266 = CIRCLE ( 'NONE', #198, 17.60000000000000900 ) ;
#267 = EDGE_LOOP ( 'NONE', ( #166 ) ) ;
#268 = AXIS2_PLACEMENT_3D ( 'NONE', #180, #161, #8 ) ;
#269 = UNCERTAINTY_MEASURE_WITH_UNIT (LENGTH_MEASURE( 1.000000000000000100E-005 ), #87, 'distance_accuracy_value', 'NONE');
#270 = FACE_OUTER_BOUND ( 'NONE', #200, .T. ) ;
#271 = CONICAL_SURFACE ( 'NONE', #272, 22.24999999955127800, 0.7853981624999769600 ) ;
#272 = AXIS2_PLACEMENT_3D ( 'NONE', #109, #112, #111 ) ;
#273 = CIRCLE ( 'NONE', #268, 11.09567409301009600 ) ;
#274 = CIRCLE ( 'NONE', #230, 22.25000000000000700 ) ;
#275 = AXIS2_PLACEMENT_3D ( 'NONE', #108, #110, #84 ) ;
#276 = CYLINDRICAL_SURFACE ( 'NONE', #234, 11.09567409301009600 ) ;
#277 = EDGE_CURVE ( 'NONE', #227, #227, #340, .T. ) ;
#278 = AXIS2_PLACEMENT_3D ( 'NONE', #44, #53, #256 ) ;
#279 = VERTEX_POINT ( 'NONE', #101 ) ;
#280 = EDGE_CURVE ( 'NONE', #245, #245, #201, .T. ) ;
#281 = CIRCLE ( 'NONE', #278, 21.25000000044873300 ) ;
#282 = VERTEX_POINT ( 'NONE', #120 ) ;
#283 = FACE_OUTER_BOUND ( 'NONE', #94, .T. ) ;
#284 = AXIS2_PLACEMENT_3D ( 'NONE', #33, #38, #34 ) ;
#285 = FACE_OUTER_BOUND ( 'NONE', #171, .T. ) ;
#286 = EDGE_LOOP ( 'NONE', ( #302 ) ) ;
#287 = CONICAL_SURFACE ( 'NONE', #150, 17.74999999997756800, 0.7853981625000064900 ) ;
#288 = AXIS2_PLACEMENT_3D ( 'NONE', #115, #93, #189 ) ;
#289 = FACE_BOUND ( 'NONE', #73, .T. ) ;
#290 = AXIS2_PLACEMENT_3D ( 'NONE', #168, #91, #2 ) ;
#291 = FACE_OUTER_BOUND ( 'NONE', #95, .T. ) ;
#292 =( LENGTH_UNIT ( ) NAMED_UNIT ( * ) SI_UNIT ( .MILLI., .METRE. ) );
#293 = FACE_OUTER_BOUND ( 'NONE', #7, .T. ) ;
#294 = DIRECTION ( 'NONE',  ( 9.856383386244419000E-017, -1.000000000000000000, -2.464095846561104700E-017 ) ) ;
#295 = AXIS2_PLACEMENT_3D ( 'NONE', #144, #294, #59 ) ;
#296 = EDGE_CURVE ( 'NONE', #279, #279, #141, .T. ) ;
#297 = DIRECTION ( 'NONE',  ( -1.000000000000000000, -1.592964954280097800E-016, 0.0000000000000000000 ) ) ;
#298 = ORIENTED_EDGE ( 'NONE', *, *, #277, .T. ) ;
#299 = DIRECTION ( 'NONE',  ( -1.206764000000000000E-016, 1.000000000000000000, 0.0000000000000000000 ) ) ;
#300 = ORIENTED_EDGE ( 'NONE', *, *, #321, .T. ) ;
#301 = EDGE_LOOP ( 'NONE', ( #184 ) ) ;
#302 = ORIENTED_EDGE ( 'NONE', *, *, #41, .F. ) ;
#303 = FACE_OUTER_BOUND ( 'NONE', #258, .T. ) ;
#304 = CARTESIAN_POINT ( 'NONE',  ( -19.50000000000000700, 7.099999999999999600, 0.0000000000000000000 ) ) ;
#305 = ORIENTED_EDGE ( 'NONE', *, *, #182, .F. ) ;
#306 = AXIS2_PLACEMENT_3D ( 'NONE', #146, #145, #138 ) ;
#307 = CLOSED_SHELL ( 'NONE', ( #26, #20, #47, #99, #24, #11, #9, #251, #58, #155, #92, #104, #72, #121, #65 ) ) ;
#308 = STYLED_ITEM ( 'NONE', ( #16 ), #119 ) ;
#309 = DIRECTION ( 'NONE',  ( -1.000000000000000000, -9.856383386231853900E-017, 0.0000000000000000000 ) ) ;
#310 = UNCERTAINTY_MEASURE_WITH_UNIT (LENGTH_MEASURE( 1.000000000000000100E-005 ), #292, 'distance_accuracy_value', 'NONE');
#311 = DIRECTION ( 'NONE',  ( 1.721082318769302200E-016, 0.4753289601842073900, -0.8798081493201800300 ) ) ;
#312 = CARTESIAN_POINT ( 'NONE',  ( -6.991365000000000000E-016, 6.993480447586129900, 0.0000000000000000000 ) ) ;
#313 = EDGE_LOOP ( 'NONE', ( #28 ) ) ;
#314 = DIRECTION ( 'NONE',  ( -1.206764000000000000E-016, 1.000000000000000000, 0.0000000000000000000 ) ) ;
#315 = AXIS2_PLACEMENT_3D ( 'NONE', #30, #75, #79 ) ;
#316 = DIRECTION ( 'NONE',  ( -1.206764000000000000E-016, 1.000000000000000000, 0.0000000000000000000 ) ) ;
#317 = CARTESIAN_POINT ( 'NONE',  ( -6.071532165918824800E-015, 8.673617379884035500E-016, 8.673617379884035500E-016 ) ) ;
#318 = EDGE_LOOP ( 'NONE', ( #122 ) ) ;
#319 = DIRECTION ( 'NONE',  ( 0.0000000000000000000, 1.000000000000000000, 0.0000000000000000000 ) ) ;
#320 = ORIENTED_EDGE ( 'NONE', *, *, #182, .T. ) ;
#321 = EDGE_CURVE ( 'NONE', #176, #176, #160, .T. ) ;
#322 = ORIENTED_EDGE ( 'NONE', *, *, #19, .F. ) ;
#323 = CARTESIAN_POINT ( 'NONE',  ( -6.923159000000000200E-016, 6.936960895172269700, 0.0000000000000000000 ) ) ;
#324 = ORIENTED_EDGE ( 'NONE', *, *, #37, .F. ) ;
#325 = ORIENTED_EDGE ( 'NONE', *, *, #296, .F. ) ;
#326 = VERTEX_POINT ( 'NONE', #338 ) ;
#327 = EDGE_LOOP ( 'NONE', ( #244 ) ) ;
#328 = MECHANICAL_DESIGN_GEOMETRIC_PRESENTATION_REPRESENTATION (  '', ( #308 ), #206 ) ;
#329 = EDGE_LOOP ( 'NONE', ( #55 ) ) ;
#330 = AXIS2_PLACEMENT_3D ( 'NONE', #312, #299, #309 ) ;
#331 = ORIENTED_EDGE ( 'NONE', *, *, #142, .F. ) ;
#332 = DIRECTION ( 'NONE',  ( 1.000000000000000000, 0.0000000000000000000, 0.0000000000000000000 ) ) ;
#333 = EDGE_LOOP ( 'NONE', ( #322 ) ) ;
#334 = ORIENTED_EDGE ( 'NONE', *, *, #280, .F. ) ;
#335 =( NAMED_UNIT ( * ) SI_UNIT ( $, .STERADIAN. ) SOLID_ANGLE_UNIT ( ) );
#336 = AXIS2_PLACEMENT_3D ( 'NONE', #178, #4, #177 ) ;
#337 = EDGE_LOOP ( 'NONE', ( #214 ) ) ;
#338 = CARTESIAN_POINT ( 'NONE',  ( -22.25000000000000400, -27.70000000000000300, 0.0000000000000000000 ) ) ;
#339 = CARTESIAN_POINT ( 'NONE',  ( -6.367246999999999600E-016, 6.476298057967252200, 0.0000000000000000000 ) ) ;
#340 = CIRCLE ( 'NONE', #62, 17.60000000000000900 ) ;
ENDSEC;
END-ISO-10303-21;
