ISO-10303-21;
HEADER;
FILE_DESCRIPTION (( 'STEP AP214' ),
    '1' );
FILE_NAME ('0026921.step',
    '2024-05-02T10:36:56',
    ( '' ),
    ( '' ),
    'SwSTEP 2.0',
    'SolidWorks 2020',
    '' );
FILE_SCHEMA (( 'AUTOMOTIVE_DESIGN' ));
ENDSEC;

DATA;
#1 = CARTESIAN_POINT ( 'NONE',  ( -13.69999999999999929, 25.00000000000000000, 0.0000000000000000000 ) ) ;
#2 = CYLINDRICAL_SURFACE ( 'NONE', #110, 11.00000000000000000 ) ;
#3 = CIRCLE ( 'NONE', #210, 11.00000000000000000 ) ;
#4 = SHAPE_DEFINITION_REPRESENTATION ( #318, #300 ) ;
#5 = UNCERTAINTY_MEASURE_WITH_UNIT (LENGTH_MEASURE( 1.000000000000000082E-05 ), #349, 'distance_accuracy_value', 'NONE');
#6 = VERTEX_POINT ( 'NONE', #69 ) ;
#7 = EDGE_CURVE ( 'NONE', #296, #336, #216, .T. ) ;
#8 = ORIENTED_EDGE ( 'NONE', *, *, #176, .F. ) ;
#9 = ORIENTED_EDGE ( 'NONE', *, *, #206, .T. ) ;
#10 = ORIENTED_EDGE ( 'NONE', *, *, #203, .F. ) ;
#11 = VERTEX_POINT ( 'NONE', #107 ) ;
#12 = DIRECTION ( 'NONE',  ( 0.0000000000000000000, -0.0000000000000000000, -1.000000000000000000 ) ) ;
#13 = CARTESIAN_POINT ( 'NONE',  ( 13.69999999999999929, 25.00000000000000000, -19.50000000000000000 ) ) ;
#14 = CARTESIAN_POINT ( 'NONE',  ( -15.00000000000000000, 50.00000000000000000, 0.0000000000000000000 ) ) ;
#15 = CARTESIAN_POINT ( 'NONE',  ( -15.00000000000000000, 0.0000000000000000000, 0.0000000000000000000 ) ) ;
#16 = DIRECTION ( 'NONE',  ( 1.000000000000000000, 0.0000000000000000000, 0.0000000000000000000 ) ) ;
#17 = DIRECTION ( 'NONE',  ( 0.0000000000000000000, -0.0000000000000000000, 1.000000000000000000 ) ) ;
#18 = EDGE_CURVE ( 'NONE', #154, #92, #33, .T. ) ;
#19 = ORIENTED_EDGE ( 'NONE', *, *, #229, .F. ) ;
#20 = DIRECTION ( 'NONE',  ( 0.0000000000000000000, 0.0000000000000000000, -1.000000000000000000 ) ) ;
#21 = DIRECTION ( 'NONE',  ( 0.0000000000000000000, 0.0000000000000000000, -1.000000000000000000 ) ) ;
#22 = VECTOR ( 'NONE', #52, 1000.000000000000000 ) ;
#23 = MECHANICAL_DESIGN_GEOMETRIC_PRESENTATION_REPRESENTATION (  '', ( #62 ), #97 ) ;
#24 = SURFACE_STYLE_USAGE ( .BOTH. , #78 ) ;
#25 = DIRECTION ( 'NONE',  ( -1.000000000000000000, -0.0000000000000000000, -0.0000000000000000000 ) ) ;
#26 = CARTESIAN_POINT ( 'NONE',  ( -15.00000000000000000, 0.0000000000000000000, 4.000000000000000000 ) ) ;
#27 = EDGE_CURVE ( 'NONE', #272, #158, #43, .T. ) ;
#28 = APPLICATION_PROTOCOL_DEFINITION ( 'draft international standard', 'automotive_design', 1998, #101 ) ;
#29 = ORIENTED_EDGE ( 'NONE', *, *, #31, .F. ) ;
#30 = VECTOR ( 'NONE', #309, 1000.000000000000000 ) ;
#31 = EDGE_CURVE ( 'NONE', #158, #296, #248, .T. ) ;
#32 = ORIENTED_EDGE ( 'NONE', *, *, #246, .T. ) ;
#33 = CIRCLE ( 'NONE', #247, 8.500000000000000000 ) ;
#34 = ORIENTED_EDGE ( 'NONE', *, *, #264, .F. ) ;
#35 = ORIENTED_EDGE ( 'NONE', *, *, #356, .F. ) ;
#36 = ORIENTED_EDGE ( 'NONE', *, *, #276, .F. ) ;
#37 = LINE ( 'NONE', #15, #137 ) ;
#38 = ORIENTED_EDGE ( 'NONE', *, *, #27, .F. ) ;
#39 = LINE ( 'NONE', #159, #211 ) ;
#40 = FILL_AREA_STYLE ('',( #68 ) ) ;
#41 = DIRECTION ( 'NONE',  ( 0.0000000000000000000, 1.000000000000000000, 0.0000000000000000000 ) ) ;
#42 = ADVANCED_FACE ( 'NONE', ( #369 ), #104, .T. ) ;
#43 = LINE ( 'NONE', #341, #82 ) ;
#44 = LINE ( 'NONE', #213, #303 ) ;
#45 = DIRECTION ( 'NONE',  ( -1.000000000000000000, 0.0000000000000000000, 0.0000000000000000000 ) ) ;
#46 = CARTESIAN_POINT ( 'NONE',  ( -15.00000000000000000, 50.00000000000000000, 0.0000000000000000000 ) ) ;
#47 =( LENGTH_UNIT ( ) NAMED_UNIT ( * ) SI_UNIT ( .MILLI., .METRE. ) );
#48 = CIRCLE ( 'NONE', #153, 11.00000000000000000 ) ;
#49 = VECTOR ( 'NONE', #186, 1000.000000000000000 ) ;
#50 = DIRECTION ( 'NONE',  ( 0.0000000000000000000, 0.0000000000000000000, -1.000000000000000000 ) ) ;
#51 = CARTESIAN_POINT ( 'NONE',  ( 13.69999999999999929, 25.00000000000000000, -11.00000000000000000 ) ) ;
#52 = DIRECTION ( 'NONE',  ( 1.000000000000000000, 0.0000000000000000000, 0.0000000000000000000 ) ) ;
#53 = SURFACE_STYLE_FILL_AREA ( #286 ) ;
#54 = DIRECTION ( 'NONE',  ( 1.000000000000000000, 0.0000000000000000000, 0.0000000000000000000 ) ) ;
#55 = ORIENTED_EDGE ( 'NONE', *, *, #167, .T. ) ;
#56 = EDGE_LOOP ( 'NONE', ( #34, #58, #10, #364 ) ) ;
#57 = ORIENTED_EDGE ( 'NONE', *, *, #347, .T. ) ;
#58 = ORIENTED_EDGE ( 'NONE', *, *, #143, .F. ) ;
#59 = ORIENTED_EDGE ( 'NONE', *, *, #31, .T. ) ;
#60 = VECTOR ( 'NONE', #345, 1000.000000000000000 ) ;
#61 = DIRECTION ( 'NONE',  ( 1.000000000000000000, 0.0000000000000000000, 0.0000000000000000000 ) ) ;
#62 = STYLED_ITEM ( 'NONE', ( #367 ), #90 ) ;
#63 = ORIENTED_EDGE ( 'NONE', *, *, #150, .T. ) ;
#64 = PLANE ( 'NONE',  #285 ) ;
#65 = DIRECTION ( 'NONE',  ( -1.000000000000000000, -0.0000000000000000000, -0.0000000000000000000 ) ) ;
#66 = FACE_OUTER_BOUND ( 'NONE', #362, .T. ) ;
#67 = ADVANCED_FACE ( 'NONE', ( #375 ), #315, .F. ) ;
#68 = FILL_AREA_STYLE_COLOUR ( '', #231 ) ;
#69 = CARTESIAN_POINT ( 'NONE',  ( 13.69999999999999929, 25.00000000000000000, -2.499999999999998668 ) ) ;
#70 = CARTESIAN_POINT ( 'NONE',  ( -13.69999999999999929, 25.00000000000000000, -19.50000000000000000 ) ) ;
#71 =( NAMED_UNIT ( * ) PLANE_ANGLE_UNIT ( ) SI_UNIT ( $, .RADIAN. ) );
#72 =( GEOMETRIC_REPRESENTATION_CONTEXT ( 3 ) GLOBAL_UNCERTAINTY_ASSIGNED_CONTEXT ( ( #259 ) ) GLOBAL_UNIT_ASSIGNED_CONTEXT ( ( #47, #71, #314 ) ) REPRESENTATION_CONTEXT ( 'NONE', 'WORKASPACE' ) );
#73 = CARTESIAN_POINT ( 'NONE',  ( 13.69999999999999929, 25.00000000000000000, -11.00000000000000000 ) ) ;
#74 = CARTESIAN_POINT ( 'NONE',  ( 13.69999999999999929, 25.00000000000000000, -22.00000000000000000 ) ) ;
#75 = DIRECTION ( 'NONE',  ( 1.000000000000000000, 0.0000000000000000000, 0.0000000000000000000 ) ) ;
#76 =( NAMED_UNIT ( * ) PLANE_ANGLE_UNIT ( ) SI_UNIT ( $, .RADIAN. ) );
#77 = CIRCLE ( 'NONE', #253, 8.500000000000000000 ) ;
#78 = SURFACE_SIDE_STYLE ('',( #53 ) ) ;
#79 = CARTESIAN_POINT ( 'NONE',  ( 13.69999999999999929, 25.00000000000000000, -11.00000000000000000 ) ) ;
#80 = APPLICATION_CONTEXT ( 'automotive_design' ) ;
#81 =( NAMED_UNIT ( * ) PLANE_ANGLE_UNIT ( ) SI_UNIT ( $, .RADIAN. ) );
#82 = VECTOR ( 'NONE', #162, 1000.000000000000000 ) ;
#83 = EDGE_CURVE ( 'NONE', #283, #92, #187, .T. ) ;
#84 = ADVANCED_FACE ( 'NONE', ( #127 ), #242, .F. ) ;
#85 = VERTEX_POINT ( 'NONE', #14 ) ;
#86 =( GEOMETRIC_REPRESENTATION_CONTEXT ( 3 ) GLOBAL_UNCERTAINTY_ASSIGNED_CONTEXT ( ( #265 ) ) GLOBAL_UNIT_ASSIGNED_CONTEXT ( ( #352, #81, #201 ) ) REPRESENTATION_CONTEXT ( 'NONE', 'WORKASPACE' ) );
#87 = CIRCLE ( 'NONE', #170, 11.00000000000000000 ) ;
#88 = VECTOR ( 'NONE', #317, 1000.000000000000000 ) ;
#89 = ORIENTED_EDGE ( 'NONE', *, *, #152, .F. ) ;
#90 = MANIFOLD_SOLID_BREP ( 'Aufsatz-Linear austragen1', #149 ) ;
#91 = ORIENTED_EDGE ( 'NONE', *, *, #203, .T. ) ;
#92 = VERTEX_POINT ( 'NONE', #70 ) ;
#93 = ORIENTED_EDGE ( 'NONE', *, *, #150, .F. ) ;
#94 =( NAMED_UNIT ( * ) PLANE_ANGLE_UNIT ( ) SI_UNIT ( $, .RADIAN. ) );
#95 = ORIENTED_EDGE ( 'NONE', *, *, #176, .T. ) ;
#96 = FACE_OUTER_BOUND ( 'NONE', #56, .T. ) ;
#97 =( GEOMETRIC_REPRESENTATION_CONTEXT ( 3 ) GLOBAL_UNCERTAINTY_ASSIGNED_CONTEXT ( ( #320 ) ) GLOBAL_UNIT_ASSIGNED_CONTEXT ( ( #240, #94, #161 ) ) REPRESENTATION_CONTEXT ( 'NONE', 'WORKASPACE' ) );
#98 = DIRECTION ( 'NONE',  ( -1.000000000000000000, -0.0000000000000000000, -0.0000000000000000000 ) ) ;
#99 = DIRECTION ( 'NONE',  ( 0.0000000000000000000, 0.0000000000000000000, -1.000000000000000000 ) ) ;
#100 = ADVANCED_FACE ( 'NONE', ( #96 ), #220, .T. ) ;
#101 = APPLICATION_CONTEXT ( 'automotive_design' ) ;
#102 = EDGE_LOOP ( 'NONE', ( #91, #19, #38, #32 ) ) ;
#103 = DIRECTION ( 'NONE',  ( 1.000000000000000000, 0.0000000000000000000, 0.0000000000000000000 ) ) ;
#104 = CYLINDRICAL_SURFACE ( 'NONE', #282, 11.00000000000000000 ) ;
#105 = COLOUR_RGB ( '',0.8000000000000000444, 0.8078431372549019773, 0.8000000000000000444 ) ;
#106 = APPLICATION_PROTOCOL_DEFINITION ( 'draft international standard', 'automotive_design', 1998, #80 ) ;
#107 = CARTESIAN_POINT ( 'NONE',  ( -13.69999999999999929, 25.00000000000000000, -22.00000000000000000 ) ) ;
#108 = LINE ( 'NONE', #168, #60 ) ;
#109 = DIRECTION ( 'NONE',  ( 1.000000000000000000, 0.0000000000000000000, 0.0000000000000000000 ) ) ;
#110 = AXIS2_PLACEMENT_3D ( 'NONE', #132, #226, #289 ) ;
#111 = CARTESIAN_POINT ( 'NONE',  ( 13.69999999999999929, 25.00000000000000000, -19.50000000000000000 ) ) ;
#112 = FACE_OUTER_BOUND ( 'NONE', #178, .T. ) ;
#113 = PRESENTATION_STYLE_ASSIGNMENT (( #142 ) ) ;
#114 = DIRECTION ( 'NONE',  ( -0.0000000000000000000, -0.0000000000000000000, -1.000000000000000000 ) ) ;
#115 = EDGE_CURVE ( 'NONE', #305, #234, #337, .T. ) ;
#116 = EDGE_CURVE ( 'NONE', #237, #305, #355, .T. ) ;
#117 = EDGE_LOOP ( 'NONE', ( #121, #209, #155, #266 ) ) ;
#118 = MECHANICAL_DESIGN_GEOMETRIC_PRESENTATION_REPRESENTATION (  '', ( #284 ), #86 ) ;
#119 = AXIS2_PLACEMENT_3D ( 'NONE', #279, #16, #338 ) ;
#120 = VERTEX_POINT ( 'NONE', #373 ) ;
#121 = ORIENTED_EDGE ( 'NONE', *, *, #332, .T. ) ;
#122 = VERTEX_POINT ( 'NONE', #188 ) ;
#123 = ADVANCED_FACE ( 'NONE', ( #66 ), #64, .F. ) ;
#124 = ORIENTED_EDGE ( 'NONE', *, *, #264, .T. ) ;
#125 = EDGE_LOOP ( 'NONE', ( #205, #36, #361, #63 ) ) ;
#126 = CARTESIAN_POINT ( 'NONE',  ( -15.00000000000000000, 0.0000000000000000000, 0.0000000000000000000 ) ) ;
#127 = FACE_OUTER_BOUND ( 'NONE', #267, .T. ) ;
#128 = DIRECTION ( 'NONE',  ( -1.000000000000000000, -0.0000000000000000000, -0.0000000000000000000 ) ) ;
#129 = SURFACE_SIDE_STYLE ('',( #312 ) ) ;
#130 = EDGE_LOOP ( 'NONE', ( #212, #57, #331, #59 ) ) ;
#131 = PLANE ( 'NONE',  #135 ) ;
#132 = CARTESIAN_POINT ( 'NONE',  ( 13.69999999999999929, 25.00000000000000000, -11.00000000000000000 ) ) ;
#133 = DIRECTION ( 'NONE',  ( 1.000000000000000000, 0.0000000000000000000, 0.0000000000000000000 ) ) ;
#134 = PRESENTATION_STYLE_ASSIGNMENT (( #24 ) ) ;
#135 = AXIS2_PLACEMENT_3D ( 'NONE', #262, #256, #199 ) ;
#136 = FACE_BOUND ( 'NONE', #180, .T. ) ;
#137 = VECTOR ( 'NONE', #184, 1000.000000000000000 ) ;
#138 = LINE ( 'NONE', #173, #269 ) ;
#139 = CARTESIAN_POINT ( 'NONE',  ( 13.69999999999999929, 25.00000000000000000, -11.00000000000000000 ) ) ;
#140 = MECHANICAL_DESIGN_GEOMETRIC_PRESENTATION_REPRESENTATION (  '', ( #307 ), #72 ) ;
#141 = DIRECTION ( 'NONE',  ( 0.0000000000000000000, 0.0000000000000000000, 1.000000000000000000 ) ) ;
#142 = SURFACE_STYLE_USAGE ( .BOTH. , #379 ) ;
#143 = EDGE_CURVE ( 'NONE', #122, #85, #339, .T. ) ;
#144 = DIRECTION ( 'NONE',  ( 0.0000000000000000000, 0.0000000000000000000, -1.000000000000000000 ) ) ;
#145 = ORIENTED_EDGE ( 'NONE', *, *, #115, .F. ) ;
#146 = VECTOR ( 'NONE', #370, 1000.000000000000000 ) ;
#147 = ORIENTED_EDGE ( 'NONE', *, *, #276, .T. ) ;
#148 = ORIENTED_EDGE ( 'NONE', *, *, #83, .F. ) ;
#149 = CLOSED_SHELL ( 'NONE', ( #84, #217, #67, #123, #325, #100 ) ) ;
#150 = EDGE_CURVE ( 'NONE', #234, #11, #87, .T. ) ;
#151 = VERTEX_POINT ( 'NONE', #126 ) ;
#152 = EDGE_CURVE ( 'NONE', #92, #154, #77, .T. ) ;
#153 = AXIS2_PLACEMENT_3D ( 'NONE', #73, #193, #144 ) ;
#154 = VERTEX_POINT ( 'NONE', #365 ) ;
#155 = ORIENTED_EDGE ( 'NONE', *, *, #18, .F. ) ;
#156 =( GEOMETRIC_REPRESENTATION_CONTEXT ( 3 ) GLOBAL_UNCERTAINTY_ASSIGNED_CONTEXT ( ( #5 ) ) GLOBAL_UNIT_ASSIGNED_CONTEXT ( ( #349, #76, #324 ) ) REPRESENTATION_CONTEXT ( 'NONE', 'WORKASPACE' ) );
#157 = CARTESIAN_POINT ( 'NONE',  ( -13.69999999999999929, 25.00000000000000000, -11.00000000000000000 ) ) ;
#158 = VERTEX_POINT ( 'NONE', #313 ) ;
#159 = CARTESIAN_POINT ( 'NONE',  ( 15.00000000000000000, 0.0000000000000000000, 0.0000000000000000000 ) ) ;
#160 = DIRECTION ( 'NONE',  ( -0.0000000000000000000, -1.000000000000000000, -0.0000000000000000000 ) ) ;
#161 =( NAMED_UNIT ( * ) SI_UNIT ( $, .STERADIAN. ) SOLID_ANGLE_UNIT ( ) );
#162 = DIRECTION ( 'NONE',  ( 0.0000000000000000000, 1.000000000000000000, 0.0000000000000000000 ) ) ;
#163 = CARTESIAN_POINT ( 'NONE',  ( -15.00000000000000000, 0.0000000000000000000, 4.000000000000000000 ) ) ;
#164 = ORIENTED_EDGE ( 'NONE', *, *, #152, .T. ) ;
#165 = DIRECTION ( 'NONE',  ( -1.000000000000000000, -0.0000000000000000000, -0.0000000000000000000 ) ) ;
#166 = DIRECTION ( 'NONE',  ( 1.000000000000000000, 0.0000000000000000000, 0.0000000000000000000 ) ) ;
#167 = EDGE_CURVE ( 'NONE', #6, #154, #44, .T. ) ;
#168 = CARTESIAN_POINT ( 'NONE',  ( -15.00000000000000000, 0.0000000000000000000, 0.0000000000000000000 ) ) ;
#169 = FILL_AREA_STYLE ('',( #343 ) ) ;
#170 = AXIS2_PLACEMENT_3D ( 'NONE', #157, #103, #20 ) ;
#171 = FACE_OUTER_BOUND ( 'NONE', #357, .T. ) ;
#172 = EDGE_CURVE ( 'NONE', #151, #120, #37, .T. ) ;
#173 = CARTESIAN_POINT ( 'NONE',  ( 15.00000000000000000, 50.00000000000000000, 4.000000000000000000 ) ) ;
#174 = DIRECTION ( 'NONE',  ( 1.000000000000000000, 0.0000000000000000000, 0.0000000000000000000 ) ) ;
#175 = EDGE_LOOP ( 'NONE', ( #182, #301, #239, #145 ) ) ;
#176 = EDGE_CURVE ( 'NONE', #336, #151, #278, .T. ) ;
#177 = ORIENTED_EDGE ( 'NONE', *, *, #172, .T. ) ;
#178 = EDGE_LOOP ( 'NONE', ( #147, #298 ) ) ;
#179 = AXIS2_PLACEMENT_3D ( 'NONE', #222, #174, #189 ) ;
#180 = EDGE_LOOP ( 'NONE', ( #268, #35 ) ) ;
#181 = CARTESIAN_POINT ( 'NONE',  ( -15.00000000000000000, 50.00000000000000000, 4.000000000000000000 ) ) ;
#182 = ORIENTED_EDGE ( 'NONE', *, *, #116, .F. ) ;
#183 = PRESENTATION_LAYER_ASSIGNMENT (  '', '', ( #307 ) ) ;
#184 = DIRECTION ( 'NONE',  ( 1.000000000000000000, 0.0000000000000000000, 0.0000000000000000000 ) ) ;
#185 = CARTESIAN_POINT ( 'NONE',  ( 15.00000000000000000, 0.0000000000000000000, 4.000000000000000000 ) ) ;
#186 = DIRECTION ( 'NONE',  ( -0.0000000000000000000, -0.0000000000000000000, -1.000000000000000000 ) ) ;
#187 = LINE ( 'NONE', #13, #241 ) ;
#188 = CARTESIAN_POINT ( 'NONE',  ( 15.00000000000000000, 50.00000000000000000, 0.0000000000000000000 ) ) ;
#189 = DIRECTION ( 'NONE',  ( 0.0000000000000000000, 0.0000000000000000000, -1.000000000000000000 ) ) ;
#190 = CARTESIAN_POINT ( 'NONE',  ( 13.69999999999999929, 25.00000000000000000, -11.00000000000000000 ) ) ;
#191 = DIRECTION ( 'NONE',  ( -1.000000000000000000, 0.0000000000000000000, -0.0000000000000000000 ) ) ;
#192 = FACE_OUTER_BOUND ( 'NONE', #175, .T. ) ;
#193 = DIRECTION ( 'NONE',  ( 1.000000000000000000, 0.0000000000000000000, 0.0000000000000000000 ) ) ;
#194 = LINE ( 'NONE', #26, #22 ) ;
#195 = PRODUCT ( '0026921', '0026921', '', ( #294 ) ) ;
#196 = CARTESIAN_POINT ( 'NONE',  ( -15.00000000000000000, 50.00000000000000000, 4.000000000000000000 ) ) ;
#197 = DIRECTION ( 'NONE',  ( -1.000000000000000000, 0.0000000000000000000, -0.0000000000000000000 ) ) ;
#198 = AXIS2_PLACEMENT_3D ( 'NONE', #342, #99, #191 ) ;
#199 = DIRECTION ( 'NONE',  ( 0.0000000000000000000, 0.0000000000000000000, -1.000000000000000000 ) ) ;
#200 = VECTOR ( 'NONE', #160, 1000.000000000000000 ) ;
#201 =( NAMED_UNIT ( * ) SI_UNIT ( $, .STERADIAN. ) SOLID_ANGLE_UNIT ( ) );
#202 = AXIS2_PLACEMENT_3D ( 'NONE', #51, #166, #378 ) ;
#203 = EDGE_CURVE ( 'NONE', #120, #122, #39, .T. ) ;
#204 = COLOUR_RGB ( '',0.8000000000000000444, 0.8078431372549019773, 0.8000000000000000444 ) ;
#205 = ORIENTED_EDGE ( 'NONE', *, *, #377, .F. ) ;
#206 = EDGE_CURVE ( 'NONE', #296, #85, #280, .T. ) ;
#207 = EDGE_LOOP ( 'NONE', ( #177, #263, #208, #95 ) ) ;
#208 = ORIENTED_EDGE ( 'NONE', *, *, #347, .F. ) ;
#209 = ORIENTED_EDGE ( 'NONE', *, *, #83, .T. ) ;
#210 = AXIS2_PLACEMENT_3D ( 'NONE', #225, #75, #50 ) ;
#211 = VECTOR ( 'NONE', #243, 1000.000000000000000 ) ;
#212 = ORIENTED_EDGE ( 'NONE', *, *, #7, .T. ) ;
#213 = CARTESIAN_POINT ( 'NONE',  ( 13.69999999999999929, 25.00000000000000000, -2.499999999999998668 ) ) ;
#214 = PLANE ( 'NONE',  #327 ) ;
#215 = PLANE ( 'NONE',  #302 ) ;
#216 = LINE ( 'NONE', #219, #200 ) ;
#217 = ADVANCED_FACE ( 'NONE', ( #368 ), #215, .F. ) ;
#218 = MANIFOLD_SOLID_BREP ( 'Aufsatz-Linear austragen2', #371 ) ;
#219 = CARTESIAN_POINT ( 'NONE',  ( -15.00000000000000000, 0.0000000000000000000, 4.000000000000000000 ) ) ;
#220 = PLANE ( 'NONE',  #198 ) ;
#221 = ADVANCED_FACE ( 'NONE', ( #171, #376 ), #131, .F. ) ;
#222 = CARTESIAN_POINT ( 'NONE',  ( 13.69999999999999929, 25.00000000000000000, -11.00000000000000000 ) ) ;
#223 = AXIS2_PLACEMENT_3D ( 'NONE', #228, #353, #54 ) ;
#224 = FACE_OUTER_BOUND ( 'NONE', #117, .T. ) ;
#225 = CARTESIAN_POINT ( 'NONE',  ( -13.69999999999999929, 25.00000000000000000, -11.00000000000000000 ) ) ;
#226 = DIRECTION ( 'NONE',  ( -1.000000000000000000, -0.0000000000000000000, -0.0000000000000000000 ) ) ;
#227 = CARTESIAN_POINT ( 'NONE',  ( 13.69999999999999929, 25.00000000000000000, -11.00000000000000000 ) ) ;
#228 = CARTESIAN_POINT ( 'NONE',  ( 0.0000000000000000000, 0.0000000000000000000, 0.0000000000000000000 ) ) ;
#229 = EDGE_CURVE ( 'NONE', #158, #122, #138, .T. ) ;
#230 = CIRCLE ( 'NONE', #271, 8.500000000000000000 ) ;
#231 = COLOUR_RGB ( '',0.8000000000000000444, 0.8078431372549019773, 0.8000000000000000444 ) ;
#232 = PRODUCT_DEFINITION ( 'UNKNOWN', '', #344, #235 ) ;
#233 = ORIENTED_EDGE ( 'NONE', *, *, #7, .F. ) ;
#234 = VERTEX_POINT ( 'NONE', #1 ) ;
#235 = PRODUCT_DEFINITION_CONTEXT ( 'detailed design', #101, 'design' ) ;
#236 = ORIENTED_EDGE ( 'NONE', *, *, #356, .T. ) ;
#237 = VERTEX_POINT ( 'NONE', #319 ) ;
#238 = DIRECTION ( 'NONE',  ( 1.000000000000000000, 0.0000000000000000000, 0.0000000000000000000 ) ) ;
#239 = ORIENTED_EDGE ( 'NONE', *, *, #293, .T. ) ;
#240 =( LENGTH_UNIT ( ) NAMED_UNIT ( * ) SI_UNIT ( .MILLI., .METRE. ) );
#241 = VECTOR ( 'NONE', #98, 1000.000000000000000 ) ;
#242 = PLANE ( 'NONE',  #119 ) ;
#243 = DIRECTION ( 'NONE',  ( 0.0000000000000000000, 1.000000000000000000, 0.0000000000000000000 ) ) ;
#244 = DIRECTION ( 'NONE',  ( 0.0000000000000000000, 0.0000000000000000000, 1.000000000000000000 ) ) ;
#245 = DIRECTION ( 'NONE',  ( 0.0000000000000000000, 0.0000000000000000000, -1.000000000000000000 ) ) ;
#246 = EDGE_CURVE ( 'NONE', #272, #120, #254, .T. ) ;
#247 = AXIS2_PLACEMENT_3D ( 'NONE', #340, #133, #274 ) ;
#248 = LINE ( 'NONE', #372, #290 ) ;
#249 = DIRECTION ( 'NONE',  ( 0.0000000000000000000, -1.000000000000000000, 0.0000000000000000000 ) ) ;
#250 = DIRECTION ( 'NONE',  ( -1.000000000000000000, -0.0000000000000000000, -0.0000000000000000000 ) ) ;
#251 = PRESENTATION_LAYER_ASSIGNMENT (  '', '', ( #284 ) ) ;
#252 = DIRECTION ( 'NONE',  ( -1.000000000000000000, -0.0000000000000000000, -0.0000000000000000000 ) ) ;
#253 = AXIS2_PLACEMENT_3D ( 'NONE', #363, #61, #306 ) ;
#254 = LINE ( 'NONE', #291, #334 ) ;
#255 = PLANE ( 'NONE',  #202 ) ;
#256 = DIRECTION ( 'NONE',  ( 1.000000000000000000, 0.0000000000000000000, 0.0000000000000000000 ) ) ;
#257 = AXIS2_PLACEMENT_3D ( 'NONE', #79, #250, #346 ) ;
#258 = SURFACE_STYLE_FILL_AREA ( #169 ) ;
#259 = UNCERTAINTY_MEASURE_WITH_UNIT (LENGTH_MEASURE( 1.000000000000000082E-05 ), #47, 'distance_accuracy_value', 'NONE');
#260 = CARTESIAN_POINT ( 'NONE',  ( 13.69999999999999929, 25.00000000000000000, 0.0000000000000000000 ) ) ;
#261 = CARTESIAN_POINT ( 'NONE',  ( 0.0000000000000000000, 0.0000000000000000000, 4.000000000000000000 ) ) ;
#262 = CARTESIAN_POINT ( 'NONE',  ( -13.69999999999999929, 25.00000000000000000, -11.00000000000000000 ) ) ;
#263 = ORIENTED_EDGE ( 'NONE', *, *, #246, .F. ) ;
#264 = EDGE_CURVE ( 'NONE', #85, #151, #108, .T. ) ;
#265 = UNCERTAINTY_MEASURE_WITH_UNIT (LENGTH_MEASURE( 1.000000000000000082E-05 ), #352, 'distance_accuracy_value', 'NONE');
#266 = ORIENTED_EDGE ( 'NONE', *, *, #167, .F. ) ;
#267 = EDGE_LOOP ( 'NONE', ( #124, #8, #233, #9 ) ) ;
#268 = ORIENTED_EDGE ( 'NONE', *, *, #332, .F. ) ;
#269 = VECTOR ( 'NONE', #114, 1000.000000000000000 ) ;
#270 = ORIENTED_EDGE ( 'NONE', *, *, #229, .T. ) ;
#271 = AXIS2_PLACEMENT_3D ( 'NONE', #139, #109, #21 ) ;
#272 = VERTEX_POINT ( 'NONE', #348 ) ;
#273 = CARTESIAN_POINT ( 'NONE',  ( 13.69999999999999929, 25.00000000000000000, 0.0000000000000000000 ) ) ;
#274 = DIRECTION ( 'NONE',  ( 0.0000000000000000000, 0.0000000000000000000, -1.000000000000000000 ) ) ;
#275 = CARTESIAN_POINT ( 'NONE',  ( -15.00000000000000000, 50.00000000000000000, 4.000000000000000000 ) ) ;
#276 = EDGE_CURVE ( 'NONE', #305, #237, #48, .T. ) ;
#277 = DIRECTION ( 'NONE',  ( 0.0000000000000000000, 0.0000000000000000000, 1.000000000000000000 ) ) ;
#278 = LINE ( 'NONE', #163, #146 ) ;
#279 = CARTESIAN_POINT ( 'NONE',  ( -15.00000000000000000, 0.0000000000000000000, 4.000000000000000000 ) ) ;
#280 = LINE ( 'NONE', #275, #49 ) ;
#281 = CARTESIAN_POINT ( 'NONE',  ( -15.00000000000000000, 0.0000000000000000000, 4.000000000000000000 ) ) ;
#282 = AXIS2_PLACEMENT_3D ( 'NONE', #190, #252, #277 ) ;
#283 = VERTEX_POINT ( 'NONE', #111 ) ;
#284 = STYLED_ITEM ( 'NONE', ( #134 ), #218 ) ;
#285 = AXIS2_PLACEMENT_3D ( 'NONE', #181, #249, #12 ) ;
#286 = FILL_AREA_STYLE ('',( #326 ) ) ;
#287 = CYLINDRICAL_SURFACE ( 'NONE', #257, 8.500000000000000000 ) ;
#288 = CYLINDRICAL_SURFACE ( 'NONE', #374, 8.500000000000000000 ) ;
#289 = DIRECTION ( 'NONE',  ( 0.0000000000000000000, 0.0000000000000000000, 1.000000000000000000 ) ) ;
#290 = VECTOR ( 'NONE', #65, 1000.000000000000000 ) ;
#291 = CARTESIAN_POINT ( 'NONE',  ( 15.00000000000000000, 0.0000000000000000000, 4.000000000000000000 ) ) ;
#292 = LINE ( 'NONE', #74, #88 ) ;
#293 = EDGE_CURVE ( 'NONE', #11, #234, #3, .T. ) ;
#294 = PRODUCT_CONTEXT ( 'NONE', #80, 'mechanical' ) ;
#295 = ORIENTED_EDGE ( 'NONE', *, *, #18, .T. ) ;
#296 = VERTEX_POINT ( 'NONE', #196 ) ;
#297 = ORIENTED_EDGE ( 'NONE', *, *, #293, .F. ) ;
#298 = ORIENTED_EDGE ( 'NONE', *, *, #116, .T. ) ;
#299 = AXIS2_PLACEMENT_3D ( 'NONE', #185, #45, #244 ) ;
#300 = ADVANCED_BREP_SHAPE_REPRESENTATION ( '0026921', ( #90, #218, #223 ), #156 ) ;
#301 = ORIENTED_EDGE ( 'NONE', *, *, #377, .T. ) ;
#302 = AXIS2_PLACEMENT_3D ( 'NONE', #311, #41, #17 ) ;
#303 = VECTOR ( 'NONE', #128, 1000.000000000000000 ) ;
#304 = ADVANCED_FACE ( 'NONE', ( #323 ), #288, .F. ) ;
#305 = VERTEX_POINT ( 'NONE', #260 ) ;
#306 = DIRECTION ( 'NONE',  ( 0.0000000000000000000, 0.0000000000000000000, -1.000000000000000000 ) ) ;
#307 = STYLED_ITEM ( 'NONE', ( #113 ), #300 ) ;
#308 = SURFACE_STYLE_USAGE ( .BOTH. , #129 ) ;
#309 = DIRECTION ( 'NONE',  ( -1.000000000000000000, -0.0000000000000000000, -0.0000000000000000000 ) ) ;
#310 = FACE_OUTER_BOUND ( 'NONE', #130, .T. ) ;
#311 = CARTESIAN_POINT ( 'NONE',  ( -15.00000000000000000, 0.0000000000000000000, 4.000000000000000000 ) ) ;
#312 = SURFACE_STYLE_FILL_AREA ( #40 ) ;
#313 = CARTESIAN_POINT ( 'NONE',  ( 15.00000000000000000, 50.00000000000000000, 4.000000000000000000 ) ) ;
#314 =( NAMED_UNIT ( * ) SI_UNIT ( $, .STERADIAN. ) SOLID_ANGLE_UNIT ( ) );
#315 = PLANE ( 'NONE',  #299 ) ;
#316 = CARTESIAN_POINT ( 'NONE',  ( 13.69999999999999929, 25.00000000000000000, -11.00000000000000000 ) ) ;
#317 = DIRECTION ( 'NONE',  ( -1.000000000000000000, -0.0000000000000000000, -0.0000000000000000000 ) ) ;
#318 = PRODUCT_DEFINITION_SHAPE ( 'NONE', 'NONE',  #232 ) ;
#319 = CARTESIAN_POINT ( 'NONE',  ( 13.69999999999999929, 25.00000000000000000, -22.00000000000000000 ) ) ;
#320 = UNCERTAINTY_MEASURE_WITH_UNIT (LENGTH_MEASURE( 1.000000000000000082E-05 ), #240, 'distance_accuracy_value', 'NONE');
#321 = VECTOR ( 'NONE', #165, 1000.000000000000000 ) ;
#322 = DIRECTION ( 'NONE',  ( -0.0000000000000000000, -0.0000000000000000000, -1.000000000000000000 ) ) ;
#323 = FACE_OUTER_BOUND ( 'NONE', #329, .T. ) ;
#324 =( NAMED_UNIT ( * ) SI_UNIT ( $, .STERADIAN. ) SOLID_ANGLE_UNIT ( ) );
#325 = ADVANCED_FACE ( 'NONE', ( #310 ), #214, .F. ) ;
#326 = FILL_AREA_STYLE_COLOUR ( '', #105 ) ;
#327 = AXIS2_PLACEMENT_3D ( 'NONE', #261, #350, #197 ) ;
#328 = ORIENTED_EDGE ( 'NONE', *, *, #143, .T. ) ;
#329 = EDGE_LOOP ( 'NONE', ( #148, #236, #55, #89 ) ) ;
#330 = ADVANCED_FACE ( 'NONE', ( #112, #136 ), #255, .T. ) ;
#331 = ORIENTED_EDGE ( 'NONE', *, *, #27, .T. ) ;
#332 = EDGE_CURVE ( 'NONE', #6, #283, #354, .T. ) ;
#333 = EDGE_LOOP ( 'NONE', ( #295, #164 ) ) ;
#334 = VECTOR ( 'NONE', #322, 1000.000000000000000 ) ;
#335 = PRESENTATION_LAYER_ASSIGNMENT (  '', '', ( #62 ) ) ;
#336 = VERTEX_POINT ( 'NONE', #281 ) ;
#337 = LINE ( 'NONE', #273, #30 ) ;
#338 = DIRECTION ( 'NONE',  ( 0.0000000000000000000, 0.0000000000000000000, -1.000000000000000000 ) ) ;
#339 = LINE ( 'NONE', #46, #321 ) ;
#340 = CARTESIAN_POINT ( 'NONE',  ( -13.69999999999999929, 25.00000000000000000, -11.00000000000000000 ) ) ;
#341 = CARTESIAN_POINT ( 'NONE',  ( 15.00000000000000000, 0.0000000000000000000, 4.000000000000000000 ) ) ;
#342 = CARTESIAN_POINT ( 'NONE',  ( 0.0000000000000000000, 0.0000000000000000000, 0.0000000000000000000 ) ) ;
#343 = FILL_AREA_STYLE_COLOUR ( '', #204 ) ;
#344 = PRODUCT_DEFINITION_FORMATION_WITH_SPECIFIED_SOURCE ( 'ANY', '', #195, .NOT_KNOWN. ) ;
#345 = DIRECTION ( 'NONE',  ( -0.0000000000000000000, -1.000000000000000000, -0.0000000000000000000 ) ) ;
#346 = DIRECTION ( 'NONE',  ( 0.0000000000000000000, 0.0000000000000000000, 1.000000000000000000 ) ) ;
#347 = EDGE_CURVE ( 'NONE', #336, #272, #194, .T. ) ;
#348 = CARTESIAN_POINT ( 'NONE',  ( 15.00000000000000000, 0.0000000000000000000, 4.000000000000000000 ) ) ;
#349 =( LENGTH_UNIT ( ) NAMED_UNIT ( * ) SI_UNIT ( .MILLI., .METRE. ) );
#350 = DIRECTION ( 'NONE',  ( 0.0000000000000000000, 0.0000000000000000000, -1.000000000000000000 ) ) ;
#351 = PRODUCT_RELATED_PRODUCT_CATEGORY ( 'part', '', ( #195 ) ) ;
#352 =( LENGTH_UNIT ( ) NAMED_UNIT ( * ) SI_UNIT ( .MILLI., .METRE. ) );
#353 = DIRECTION ( 'NONE',  ( 0.0000000000000000000, 0.0000000000000000000, 1.000000000000000000 ) ) ;
#354 = CIRCLE ( 'NONE', #179, 8.500000000000000000 ) ;
#355 = CIRCLE ( 'NONE', #366, 11.00000000000000000 ) ;
#356 = EDGE_CURVE ( 'NONE', #283, #6, #230, .T. ) ;
#357 = EDGE_LOOP ( 'NONE', ( #93, #297 ) ) ;
#358 = ORIENTED_EDGE ( 'NONE', *, *, #206, .F. ) ;
#359 = ADVANCED_FACE ( 'NONE', ( #192 ), #2, .T. ) ;
#360 = ADVANCED_FACE ( 'NONE', ( #224 ), #287, .F. ) ;
#361 = ORIENTED_EDGE ( 'NONE', *, *, #115, .T. ) ;
#362 = EDGE_LOOP ( 'NONE', ( #328, #358, #29, #270 ) ) ;
#363 = CARTESIAN_POINT ( 'NONE',  ( -13.69999999999999929, 25.00000000000000000, -11.00000000000000000 ) ) ;
#364 = ORIENTED_EDGE ( 'NONE', *, *, #172, .F. ) ;
#365 = CARTESIAN_POINT ( 'NONE',  ( -13.69999999999999929, 25.00000000000000000, -2.499999999999998668 ) ) ;
#366 = AXIS2_PLACEMENT_3D ( 'NONE', #316, #238, #245 ) ;
#367 = PRESENTATION_STYLE_ASSIGNMENT (( #308 ) ) ;
#368 = FACE_OUTER_BOUND ( 'NONE', #207, .T. ) ;
#369 = FACE_OUTER_BOUND ( 'NONE', #125, .T. ) ;
#370 = DIRECTION ( 'NONE',  ( -0.0000000000000000000, -0.0000000000000000000, -1.000000000000000000 ) ) ;
#371 = CLOSED_SHELL ( 'NONE', ( #360, #359, #330, #221, #42, #304 ) ) ;
#372 = CARTESIAN_POINT ( 'NONE',  ( -15.00000000000000000, 50.00000000000000000, 4.000000000000000000 ) ) ;
#373 = CARTESIAN_POINT ( 'NONE',  ( 15.00000000000000000, 0.0000000000000000000, 0.0000000000000000000 ) ) ;
#374 = AXIS2_PLACEMENT_3D ( 'NONE', #227, #25, #141 ) ;
#375 = FACE_OUTER_BOUND ( 'NONE', #102, .T. ) ;
#376 = FACE_BOUND ( 'NONE', #333, .T. ) ;
#377 = EDGE_CURVE ( 'NONE', #237, #11, #292, .T. ) ;
#378 = DIRECTION ( 'NONE',  ( 0.0000000000000000000, 0.0000000000000000000, -1.000000000000000000 ) ) ;
#379 = SURFACE_SIDE_STYLE ('',( #258 ) ) ;
ENDSEC;
END-ISO-10303-21;
