ISO-10303-21;
HEADER;
FILE_DESCRIPTION (( 'STEP AP214' ),
    '1' );
FILE_NAME ('0017228_PAHU-080-74-KS47x14.STEP',
    '2018-10-17T10:07:46',
    ( '' ),
    ( '' ),
    'SwSTEP 2.0',
    'SolidWorks 2018',
    '' );
FILE_SCHEMA (( 'AUTOMOTIVE_DESIGN' ));
ENDSEC;

DATA;
#1 = CARTESIAN_POINT ( 'NONE',  ( -36.99999999999999289, 0.0000000000000000000, -30.42123644365851121 ) ) ;
#2 = ADVANCED_FACE ( 'NONE', ( #68, #282 ), #54, .F. ) ;
#3 = CARTESIAN_POINT ( 'NONE',  ( -36.00000000000000000, 0.0000000000000000000, -23.42500000000000071 ) ) ;
#4 = PRESENTATION_STYLE_ASSIGNMENT (( #330 ) ) ;
#5 = EDGE_LOOP ( 'NONE', ( #26 ) ) ;
#6 = CARTESIAN_POINT ( 'NONE',  ( 35.99999999999999289, 0.0000000000000000000, 23.42500000000000071 ) ) ;
#7 =( LENGTH_UNIT ( ) NAMED_UNIT ( * ) SI_UNIT ( .MILLI., .METRE. ) );
#8 = PRESENTATION_STYLE_ASSIGNMENT (( #264 ) ) ;
#9 = ORIENTED_EDGE ( 'NONE', *, *, #208, .F. ) ;
#10 = EDGE_CURVE ( 'NONE', #39, #39, #216, .T. ) ;
#11 = EDGE_LOOP ( 'NONE', ( #248 ) ) ;
#12 = CIRCLE ( 'NONE', #52, 40.00000000000000000 ) ;
#13 = ORIENTED_EDGE ( 'NONE', *, *, #187, .F. ) ;
#14 = EDGE_LOOP ( 'NONE', ( #9 ) ) ;
#15 = CLOSED_SHELL ( 'NONE', ( #193, #2, #165, #28, #265, #255, #189, #92, #36, #88, #263, #286, #260, #57 ) ) ;
#16 = DIRECTION ( 'NONE',  ( -1.000000000000000000, 0.0000000000000000000, 0.0000000000000000000 ) ) ;
#17 = AXIS2_PLACEMENT_3D ( 'NONE', #186, #185, #234 ) ;
#18 = DIRECTION ( 'NONE',  ( 1.000000000000000000, 0.0000000000000000000, 0.0000000000000000000 ) ) ;
#19 = FACE_OUTER_BOUND ( 'NONE', #70, .T. ) ;
#20 = EDGE_LOOP ( 'NONE', ( #171 ) ) ;
#21 = CARTESIAN_POINT ( 'NONE',  ( -36.99999999999999289, 23.42500000000000071, 0.0000000000000000000 ) ) ;
#22 = DIRECTION ( 'NONE',  ( -1.000000000000000000, 0.0000000000000000000, 0.0000000000000000000 ) ) ;
#23 = AXIS2_PLACEMENT_3D ( 'NONE', #254, #327, #333 ) ;
#24 = DIRECTION ( 'NONE',  ( -1.000000000000000000, 0.0000000000000000000, 0.0000000000000000000 ) ) ;
#25 = CONICAL_SURFACE ( 'NONE', #23, 24.42500000000000071, 0.7853981633974482790 ) ;
#26 = ORIENTED_EDGE ( 'NONE', *, *, #303, .F. ) ;
#27 = CARTESIAN_POINT ( 'NONE',  ( 22.90000000000000213, 0.0000000000000000000, 0.0000000000000000000 ) ) ;
#28 = ADVANCED_FACE ( 'NONE', ( #295, #33 ), #142, .F. ) ;
#29 = CARTESIAN_POINT ( 'NONE',  ( 36.99999999999999289, 0.0000000000000000000, 0.0000000000000000000 ) ) ;
#30 = AXIS2_PLACEMENT_3D ( 'NONE', #29, #213, #86 ) ;
#31 = CIRCLE ( 'NONE', #71, 40.00000000000000000 ) ;
#32 = CARTESIAN_POINT ( 'NONE',  ( 36.99999999999999289, 0.0000000000000000000, 30.42123644365851121 ) ) ;
#33 = FACE_OUTER_BOUND ( 'NONE', #136, .T. ) ;
#34 = ADVANCED_BREP_SHAPE_REPRESENTATION ( '0017228_PAHU-080-74-KS47x14', ( #314, #267 ), #227 ) ;
#35 = AXIS2_PLACEMENT_3D ( 'NONE', #138, #302, #161 ) ;
#36 = ADVANCED_FACE ( 'NONE', ( #253, #192 ), #128, .F. ) ;
#37 =( LENGTH_UNIT ( ) NAMED_UNIT ( * ) SI_UNIT ( .MILLI., .METRE. ) );
#38 =( NAMED_UNIT ( * ) SI_UNIT ( $, .STERADIAN. ) SOLID_ANGLE_UNIT ( ) );
#39 = VERTEX_POINT ( 'NONE', #82 ) ;
#40 = ORIENTED_EDGE ( 'NONE', *, *, #187, .T. ) ;
#41 = APPLICATION_PROTOCOL_DEFINITION ( 'draft international standard', 'automotive_design', 1998, #139 ) ;
#42 = STYLED_ITEM ( 'NONE', ( #4 ), #314 ) ;
#43 = FACE_OUTER_BOUND ( 'NONE', #271, .T. ) ;
#44 = FACE_OUTER_BOUND ( 'NONE', #73, .T. ) ;
#45 = AXIS2_PLACEMENT_3D ( 'NONE', #262, #283, #135 ) ;
#46 = DIRECTION ( 'NONE',  ( -1.000000000000000000, 0.0000000000000000000, 0.0000000000000000000 ) ) ;
#47 = CARTESIAN_POINT ( 'NONE',  ( -36.00000000000000000, 0.0000000000000000000, 0.0000000000000000000 ) ) ;
#48 = FACE_OUTER_BOUND ( 'NONE', #325, .T. ) ;
#49 = EDGE_LOOP ( 'NONE', ( #207 ) ) ;
#50 = DIRECTION ( 'NONE',  ( -1.000000000000000000, 0.0000000000000000000, 0.0000000000000000000 ) ) ;
#51 = CARTESIAN_POINT ( 'NONE',  ( -36.00000000000000000, 0.0000000000000000000, 0.0000000000000000000 ) ) ;
#52 = AXIS2_PLACEMENT_3D ( 'NONE', #259, #24, #158 ) ;
#53 = CARTESIAN_POINT ( 'NONE',  ( 31.08108108108107714, 0.0000000000000000000, 0.0000000000000000000 ) ) ;
#54 = CYLINDRICAL_SURFACE ( 'NONE', #157, 20.99999999999999289 ) ;
#55 = DIRECTION ( 'NONE',  ( -1.000000000000000000, 0.0000000000000000000, 0.0000000000000000000 ) ) ;
#56 = CARTESIAN_POINT ( 'NONE',  ( -22.89999999999999503, 20.99999999999999289, 0.0000000000000000000 ) ) ;
#57 = ADVANCED_FACE ( 'NONE', ( #332, #147 ), #166, .F. ) ;
#58 = CARTESIAN_POINT ( 'NONE',  ( -29.49999999999999289, 0.0000000000000000000, 0.0000000000000000000 ) ) ;
#59 = PRESENTATION_LAYER_ASSIGNMENT (  '', '', ( #42 ) ) ;
#60 = DIRECTION ( 'NONE',  ( -1.000000000000000000, 0.0000000000000000000, 0.0000000000000000000 ) ) ;
#61 = TOROIDAL_SURFACE ( 'NONE', #45, 30.42123644365851121, 7.500000000000000000 ) ;
#62 = DIRECTION ( 'NONE',  ( 0.0000000000000000000, 0.0000000000000000000, -1.000000000000000000 ) ) ;
#63 = VERTEX_POINT ( 'NONE', #218 ) ;
#64 =( NAMED_UNIT ( * ) PLANE_ANGLE_UNIT ( ) SI_UNIT ( $, .RADIAN. ) );
#65 = ORIENTED_EDGE ( 'NONE', *, *, #10, .T. ) ;
#66 = DIRECTION ( 'NONE',  ( 1.000000000000000000, 0.0000000000000000000, 0.0000000000000000000 ) ) ;
#67 = VERTEX_POINT ( 'NONE', #1 ) ;
#68 = FACE_OUTER_BOUND ( 'NONE', #113, .T. ) ;
#69 =( GEOMETRIC_REPRESENTATION_CONTEXT ( 3 ) GLOBAL_UNCERTAINTY_ASSIGNED_CONTEXT ( ( #258 ) ) GLOBAL_UNIT_ASSIGNED_CONTEXT ( ( #37, #94, #38 ) ) REPRESENTATION_CONTEXT ( 'NONE', 'WORKASPACE' ) );
#70 = EDGE_LOOP ( 'NONE', ( #91 ) ) ;
#71 = AXIS2_PLACEMENT_3D ( 'NONE', #280, #214, #188 ) ;
#72 = AXIS2_PLACEMENT_3D ( 'NONE', #78, #81, #296 ) ;
#73 = EDGE_LOOP ( 'NONE', ( #87 ) ) ;
#74 = CARTESIAN_POINT ( 'NONE',  ( -57.63693753693752342, 0.0000000000000000000, 0.0000000000000000000 ) ) ;
#75 = DIRECTION ( 'NONE',  ( 0.0000000000000000000, 0.0000000000000000000, 1.000000000000000000 ) ) ;
#76 = MECHANICAL_DESIGN_GEOMETRIC_PRESENTATION_REPRESENTATION (  '', ( #42 ), #69 ) ;
#77 = CARTESIAN_POINT ( 'NONE',  ( 36.99999999999999289, 0.0000000000000000000, 0.0000000000000000000 ) ) ;
#78 = CARTESIAN_POINT ( 'NONE',  ( -22.89999999999999503, 0.0000000000000000000, 0.0000000000000000000 ) ) ;
#79 = CARTESIAN_POINT ( 'NONE',  ( -31.08108108108107714, 0.0000000000000000000, 0.0000000000000000000 ) ) ;
#80 = CIRCLE ( 'NONE', #331, 24.42500000000001492 ) ;
#81 = DIRECTION ( 'NONE',  ( -1.000000000000000000, 0.0000000000000000000, 0.0000000000000000000 ) ) ;
#82 = CARTESIAN_POINT ( 'NONE',  ( -22.89999999999999503, 0.0000000000000000000, 23.42500000000000071 ) ) ;
#83 = CARTESIAN_POINT ( 'NONE',  ( 36.99999999999999289, 0.0000000000000000000, 24.42500000000000071 ) ) ;
#84 = VERTEX_POINT ( 'NONE', #83 ) ;
#85 = EDGE_LOOP ( 'NONE', ( #317 ) ) ;
#86 = DIRECTION ( 'NONE',  ( 0.0000000000000000000, 0.0000000000000000000, 1.000000000000000000 ) ) ;
#87 = ORIENTED_EDGE ( 'NONE', *, *, #150, .T. ) ;
#88 = ADVANCED_FACE ( 'NONE', ( #44, #101 ), #173, .F. ) ;
#89 = DIRECTION ( 'NONE',  ( 0.0000000000000000000, 0.0000000000000000000, -1.000000000000000000 ) ) ;
#90 = AXIS2_PLACEMENT_3D ( 'NONE', #27, #55, #184 ) ;
#91 = ORIENTED_EDGE ( 'NONE', *, *, #194, .F. ) ;
#92 = ADVANCED_FACE ( 'NONE', ( #233, #301 ), #243, .T. ) ;
#93 = CARTESIAN_POINT ( 'NONE',  ( -31.08108108108107714, 0.0000000000000000000, -37.75268804719840432 ) ) ;
#94 =( NAMED_UNIT ( * ) PLANE_ANGLE_UNIT ( ) SI_UNIT ( $, .RADIAN. ) );
#95 =( NAMED_UNIT ( * ) SI_UNIT ( $, .STERADIAN. ) SOLID_ANGLE_UNIT ( ) );
#96 = EDGE_CURVE ( 'NONE', #84, #84, #269, .T. ) ;
#97 = PRODUCT_DEFINITION_FORMATION_WITH_SPECIFIED_SOURCE ( 'ANY', '', #328, .NOT_KNOWN. ) ;
#98 = VERTEX_POINT ( 'NONE', #285 ) ;
#99 = ORIENTED_EDGE ( 'NONE', *, *, #137, .F. ) ;
#100 = EDGE_LOOP ( 'NONE', ( #124 ) ) ;
#101 = FACE_OUTER_BOUND ( 'NONE', #247, .T. ) ;
#102 = SURFACE_STYLE_FILL_AREA ( #143 ) ;
#103 = PRODUCT_DEFINITION_CONTEXT ( 'detailed design', #139, 'design' ) ;
#104 = DIRECTION ( 'NONE',  ( -1.000000000000000000, 0.0000000000000000000, 0.0000000000000000000 ) ) ;
#105 = DIRECTION ( 'NONE',  ( 1.000000000000000000, 0.0000000000000000000, 0.0000000000000000000 ) ) ;
#106 = CIRCLE ( 'NONE', #17, 30.42123644365851121 ) ;
#107 = EDGE_LOOP ( 'NONE', ( #199 ) ) ;
#108 = EDGE_CURVE ( 'NONE', #291, #291, #289, .T. ) ;
#109 = DIRECTION ( 'NONE',  ( 0.0000000000000000000, 0.0000000000000000000, 1.000000000000000000 ) ) ;
#110 = CARTESIAN_POINT ( 'NONE',  ( 35.99999999999999289, 0.0000000000000000000, 0.0000000000000000000 ) ) ;
#111 = AXIS2_PLACEMENT_3D ( 'NONE', #250, #322, #323 ) ;
#112 = CIRCLE ( 'NONE', #90, 20.99999999999999289 ) ;
#113 = EDGE_LOOP ( 'NONE', ( #230 ) ) ;
#114 = CARTESIAN_POINT ( 'NONE',  ( 9.999999999999994671, 0.0000000000000000000, 40.00000000000000000 ) ) ;
#115 = PRODUCT_RELATED_PRODUCT_CATEGORY ( 'part', '', ( #328 ) ) ;
#116 = CARTESIAN_POINT ( 'NONE',  ( -22.89999999999999503, 0.0000000000000000000, 20.99999999999999289 ) ) ;
#117 = FACE_OUTER_BOUND ( 'NONE', #163, .T. ) ;
#118 = ORIENTED_EDGE ( 'NONE', *, *, #303, .T. ) ;
#119 =( NAMED_UNIT ( * ) SI_UNIT ( $, .STERADIAN. ) SOLID_ANGLE_UNIT ( ) );
#120 =( GEOMETRIC_REPRESENTATION_CONTEXT ( 3 ) GLOBAL_UNCERTAINTY_ASSIGNED_CONTEXT ( ( #224 ) ) GLOBAL_UNIT_ASSIGNED_CONTEXT ( ( #7, #64, #119 ) ) REPRESENTATION_CONTEXT ( 'NONE', 'WORKASPACE' ) );
#121 = TOROIDAL_SURFACE ( 'NONE', #35, -60.00000000000000711, 100.0000000000000000 ) ;
#122 = AXIS2_PLACEMENT_3D ( 'NONE', #77, #127, #75 ) ;
#123 = CIRCLE ( 'NONE', #177, 23.42500000000000071 ) ;
#124 = ORIENTED_EDGE ( 'NONE', *, *, #174, .T. ) ;
#125 = DIRECTION ( 'NONE',  ( 0.0000000000000000000, 0.0000000000000000000, 1.000000000000000000 ) ) ;
#126 = FACE_OUTER_BOUND ( 'NONE', #310, .T. ) ;
#127 = DIRECTION ( 'NONE',  ( -1.000000000000000000, 0.0000000000000000000, 0.0000000000000000000 ) ) ;
#128 = PLANE ( 'NONE',  #313 ) ;
#129 = CIRCLE ( 'NONE', #261, 37.75268804719840432 ) ;
#130 = EDGE_LOOP ( 'NONE', ( #40 ) ) ;
#131 = DIRECTION ( 'NONE',  ( 1.000000000000000000, 0.0000000000000000000, 0.0000000000000000000 ) ) ;
#132 = EDGE_LOOP ( 'NONE', ( #202 ) ) ;
#133 = CARTESIAN_POINT ( 'NONE',  ( 36.99999999999999289, 23.42500000000000071, 0.0000000000000000000 ) ) ;
#134 = DIRECTION ( 'NONE',  ( 1.000000000000000000, -0.0000000000000000000, -0.0000000000000000000 ) ) ;
#135 = DIRECTION ( 'NONE',  ( 0.0000000000000000000, 0.0000000000000000000, 1.000000000000000000 ) ) ;
#136 = EDGE_LOOP ( 'NONE', ( #219 ) ) ;
#137 = EDGE_CURVE ( 'NONE', #257, #257, #123, .T. ) ;
#138 = CARTESIAN_POINT ( 'NONE',  ( 10.00000000000000178, 0.0000000000000000000, 0.0000000000000000000 ) ) ;
#139 = APPLICATION_CONTEXT ( 'automotive_design' ) ;
#140 = PRODUCT_DEFINITION ( 'UNKNOWN', '', #97, #103 ) ;
#141 = VERTEX_POINT ( 'NONE', #32 ) ;
#142 = CYLINDRICAL_SURFACE ( 'NONE', #172, 23.42500000000000071 ) ;
#143 = FILL_AREA_STYLE ('',( #217 ) ) ;
#144 = ORIENTED_EDGE ( 'NONE', *, *, #108, .T. ) ;
#145 = AXIS2_PLACEMENT_3D ( 'NONE', #79, #278, #274 ) ;
#146 = FACE_OUTER_BOUND ( 'NONE', #20, .T. ) ;
#147 = FACE_BOUND ( 'NONE', #226, .T. ) ;
#148 = ORIENTED_EDGE ( 'NONE', *, *, #203, .T. ) ;
#149 = CARTESIAN_POINT ( 'NONE',  ( -57.63693753693752342, 0.0000000000000000000, 0.0000000000000000000 ) ) ;
#150 = EDGE_CURVE ( 'NONE', #244, #244, #308, .T. ) ;
#151 = DIRECTION ( 'NONE',  ( -1.000000000000000000, -0.0000000000000000000, -0.0000000000000000000 ) ) ;
#152 = DIRECTION ( 'NONE',  ( 0.0000000000000000000, 0.0000000000000000000, 1.000000000000000000 ) ) ;
#153 = DIRECTION ( 'NONE',  ( -1.000000000000000000, 0.0000000000000000000, 0.0000000000000000000 ) ) ;
#154 = CIRCLE ( 'NONE', #72, 20.99999999999999289 ) ;
#155 = ORIENTED_EDGE ( 'NONE', *, *, #150, .F. ) ;
#156 = DIRECTION ( 'NONE',  ( 0.0000000000000000000, 0.0000000000000000000, 1.000000000000000000 ) ) ;
#157 = AXIS2_PLACEMENT_3D ( 'NONE', #74, #246, #319 ) ;
#158 = DIRECTION ( 'NONE',  ( 0.0000000000000000000, 0.0000000000000000000, 1.000000000000000000 ) ) ;
#159 = VERTEX_POINT ( 'NONE', #114 ) ;
#160 = EDGE_LOOP ( 'NONE', ( #144 ) ) ;
#161 = DIRECTION ( 'NONE',  ( 0.0000000000000000000, 0.0000000000000000000, 1.000000000000000000 ) ) ;
#162 = PRESENTATION_LAYER_ASSIGNMENT (  '', '', ( #210 ) ) ;
#163 = EDGE_LOOP ( 'NONE', ( #65 ) ) ;
#164 = CARTESIAN_POINT ( 'NONE',  ( -36.99999999999999289, 0.0000000000000000000, 0.0000000000000000000 ) ) ;
#165 = ADVANCED_FACE ( 'NONE', ( #297, #252 ), #275, .F. ) ;
#166 = CONICAL_SURFACE ( 'NONE', #225, 23.42500000000000071, 0.7853981633974587151 ) ;
#167 = APPLICATION_CONTEXT ( 'automotive_design' ) ;
#168 = SURFACE_SIDE_STYLE ('',( #102 ) ) ;
#169 = EDGE_LOOP ( 'NONE', ( #183 ) ) ;
#170 = AXIS2_PLACEMENT_3D ( 'NONE', #110, #134, #109 ) ;
#171 = ORIENTED_EDGE ( 'NONE', *, *, #96, .F. ) ;
#172 = AXIS2_PLACEMENT_3D ( 'NONE', #200, #46, #196 ) ;
#173 = CYLINDRICAL_SURFACE ( 'NONE', #111, 23.42500000000000071 ) ;
#174 = EDGE_CURVE ( 'NONE', #238, #238, #154, .T. ) ;
#175 = DIRECTION ( 'NONE',  ( 0.0000000000000000000, 0.0000000000000000000, 1.000000000000000000 ) ) ;
#176 = DIRECTION ( 'NONE',  ( 0.0000000000000000000, 0.0000000000000000000, -1.000000000000000000 ) ) ;
#177 = AXIS2_PLACEMENT_3D ( 'NONE', #251, #180, #298 ) ;
#178 = CARTESIAN_POINT ( 'NONE',  ( -22.89999999999999503, 0.0000000000000000000, 0.0000000000000000000 ) ) ;
#179 = DIRECTION ( 'NONE',  ( -1.000000000000000000, 0.0000000000000000000, 0.0000000000000000000 ) ) ;
#180 = DIRECTION ( 'NONE',  ( -1.000000000000000000, 0.0000000000000000000, 0.0000000000000000000 ) ) ;
#181 = SURFACE_SIDE_STYLE ('',( #232 ) ) ;
#182 = CIRCLE ( 'NONE', #170, 23.42500000000000071 ) ;
#183 = ORIENTED_EDGE ( 'NONE', *, *, #96, .T. ) ;
#184 = DIRECTION ( 'NONE',  ( 0.0000000000000000000, 0.0000000000000000000, 1.000000000000000000 ) ) ;
#185 = DIRECTION ( 'NONE',  ( -1.000000000000000000, -0.0000000000000000000, -0.0000000000000000000 ) ) ;
#186 = CARTESIAN_POINT ( 'NONE',  ( -36.99999999999999289, 0.0000000000000000000, 0.0000000000000000000 ) ) ;
#187 = EDGE_CURVE ( 'NONE', #211, #211, #129, .T. ) ;
#188 = DIRECTION ( 'NONE',  ( 0.0000000000000000000, 0.0000000000000000000, 1.000000000000000000 ) ) ;
#189 = ADVANCED_FACE ( 'NONE', ( #48, #198 ), #245, .T. ) ;
#190 =( LENGTH_UNIT ( ) NAMED_UNIT ( * ) SI_UNIT ( .MILLI., .METRE. ) );
#191 = FACE_OUTER_BOUND ( 'NONE', #85, .T. ) ;
#192 = FACE_OUTER_BOUND ( 'NONE', #326, .T. ) ;
#193 = ADVANCED_FACE ( 'NONE', ( #324, #117 ), #209, .F. ) ;
#194 = EDGE_CURVE ( 'NONE', #141, #141, #206, .T. ) ;
#195 = AXIS2_PLACEMENT_3D ( 'NONE', #249, #153, #175 ) ;
#196 = DIRECTION ( 'NONE',  ( 0.0000000000000000000, 0.0000000000000000000, 1.000000000000000000 ) ) ;
#197 = VERTEX_POINT ( 'NONE', #6 ) ;
#198 = FACE_OUTER_BOUND ( 'NONE', #273, .T. ) ;
#199 = ORIENTED_EDGE ( 'NONE', *, *, #203, .F. ) ;
#200 = CARTESIAN_POINT ( 'NONE',  ( -57.63693753693752342, 0.0000000000000000000, 0.0000000000000000000 ) ) ;
#201 = AXIS2_PLACEMENT_3D ( 'NONE', #133, #60, #329 ) ;
#202 = ORIENTED_EDGE ( 'NONE', *, *, #256, .T. ) ;
#203 = EDGE_CURVE ( 'NONE', #159, #159, #31, .T. ) ;
#204 = MECHANICAL_DESIGN_GEOMETRIC_PRESENTATION_REPRESENTATION (  '', ( #210 ), #120 ) ;
#205 = DIRECTION ( 'NONE',  ( 0.0000000000000000000, 0.0000000000000000000, 1.000000000000000000 ) ) ;
#206 = CIRCLE ( 'NONE', #30, 30.42123644365851121 ) ;
#207 = ORIENTED_EDGE ( 'NONE', *, *, #174, .F. ) ;
#208 = EDGE_CURVE ( 'NONE', #197, #197, #182, .T. ) ;
#209 = PLANE ( 'NONE',  #241 ) ;
#210 = STYLED_ITEM ( 'NONE', ( #8 ), #34 ) ;
#211 = VERTEX_POINT ( 'NONE', #288 ) ;
#212 = ORIENTED_EDGE ( 'NONE', *, *, #290, .F. ) ;
#213 = DIRECTION ( 'NONE',  ( 1.000000000000000000, -0.0000000000000000000, -0.0000000000000000000 ) ) ;
#214 = DIRECTION ( 'NONE',  ( -1.000000000000000000, 0.0000000000000000000, 0.0000000000000000000 ) ) ;
#215 = DIRECTION ( 'NONE',  ( 0.0000000000000000000, 0.0000000000000000000, 1.000000000000000000 ) ) ;
#216 = CIRCLE ( 'NONE', #221, 23.42500000000000071 ) ;
#217 = FILL_AREA_STYLE_COLOUR ( '', #276 ) ;
#218 = CARTESIAN_POINT ( 'NONE',  ( -36.99999999999999289, 0.0000000000000000000, -24.42500000000001492 ) ) ;
#219 = ORIENTED_EDGE ( 'NONE', *, *, #137, .T. ) ;
#220 = EDGE_LOOP ( 'NONE', ( #212 ) ) ;
#221 = AXIS2_PLACEMENT_3D ( 'NONE', #178, #16, #152 ) ;
#222 = FACE_OUTER_BOUND ( 'NONE', #130, .T. ) ;
#223 = EDGE_LOOP ( 'NONE', ( #281 ) ) ;
#224 = UNCERTAINTY_MEASURE_WITH_UNIT (LENGTH_MEASURE( 1.000000000000000082E-05 ), #7, 'distance_accuracy_value', 'NONE');
#225 = AXIS2_PLACEMENT_3D ( 'NONE', #47, #22, #205 ) ;
#226 = EDGE_LOOP ( 'NONE', ( #155 ) ) ;
#227 =( GEOMETRIC_REPRESENTATION_CONTEXT ( 3 ) GLOBAL_UNCERTAINTY_ASSIGNED_CONTEXT ( ( #307 ) ) GLOBAL_UNIT_ASSIGNED_CONTEXT ( ( #190, #312, #95 ) ) REPRESENTATION_CONTEXT ( 'NONE', 'WORKASPACE' ) );
#228 = CARTESIAN_POINT ( 'NONE',  ( -10.00000000000000178, 0.0000000000000000000, 0.0000000000000000000 ) ) ;
#229 = FACE_OUTER_BOUND ( 'NONE', #107, .T. ) ;
#230 = ORIENTED_EDGE ( 'NONE', *, *, #256, .F. ) ;
#231 = DIRECTION ( 'NONE',  ( 0.0000000000000000000, 0.0000000000000000000, -1.000000000000000000 ) ) ;
#232 = SURFACE_STYLE_FILL_AREA ( #334 ) ;
#233 = FACE_OUTER_BOUND ( 'NONE', #160, .T. ) ;
#234 = DIRECTION ( 'NONE',  ( 0.0000000000000000000, 0.0000000000000000000, -1.000000000000000000 ) ) ;
#235 = AXIS2_PLACEMENT_3D ( 'NONE', #58, #236, #62 ) ;
#236 = DIRECTION ( 'NONE',  ( 1.000000000000000000, 0.0000000000000000000, 0.0000000000000000000 ) ) ;
#237 = CARTESIAN_POINT ( 'NONE',  ( 0.0000000000000000000, 0.0000000000000000000, 0.0000000000000000000 ) ) ;
#238 = VERTEX_POINT ( 'NONE', #116 ) ;
#239 = FACE_BOUND ( 'NONE', #14, .T. ) ;
#240 = APPLICATION_PROTOCOL_DEFINITION ( 'draft international standard', 'automotive_design', 1998, #167 ) ;
#241 = AXIS2_PLACEMENT_3D ( 'NONE', #56, #105, #299 ) ;
#242 = PRODUCT_CONTEXT ( 'NONE', #167, 'mechanical' ) ;
#243 = TOROIDAL_SURFACE ( 'NONE', #300, -60.00000000000000711, 100.0000000000000000 ) ;
#244 = VERTEX_POINT ( 'NONE', #3 ) ;
#245 = CYLINDRICAL_SURFACE ( 'NONE', #305, 40.00000000000000000 ) ;
#246 = DIRECTION ( 'NONE',  ( -1.000000000000000000, 0.0000000000000000000, 0.0000000000000000000 ) ) ;
#247 = EDGE_LOOP ( 'NONE', ( #293 ) ) ;
#248 = ORIENTED_EDGE ( 'NONE', *, *, #290, .T. ) ;
#249 = CARTESIAN_POINT ( 'NONE',  ( 22.89999999999999503, 20.99999999999999289, 0.0000000000000000000 ) ) ;
#250 = CARTESIAN_POINT ( 'NONE',  ( -57.63693753693752342, 0.0000000000000000000, 0.0000000000000000000 ) ) ;
#251 = CARTESIAN_POINT ( 'NONE',  ( 22.90000000000000213, 0.0000000000000000000, 0.0000000000000000000 ) ) ;
#252 = FACE_BOUND ( 'NONE', #132, .T. ) ;
#253 = FACE_BOUND ( 'NONE', #11, .T. ) ;
#254 = CARTESIAN_POINT ( 'NONE',  ( 36.99999999999999289, 0.0000000000000000000, 0.0000000000000000000 ) ) ;
#255 = ADVANCED_FACE ( 'NONE', ( #222, #229 ), #121, .T. ) ;
#256 = EDGE_CURVE ( 'NONE', #98, #98, #112, .T. ) ;
#257 = VERTEX_POINT ( 'NONE', #306 ) ;
#258 = UNCERTAINTY_MEASURE_WITH_UNIT (LENGTH_MEASURE( 1.000000000000000082E-05 ), #37, 'distance_accuracy_value', 'NONE');
#259 = CARTESIAN_POINT ( 'NONE',  ( -9.999999999999994671, 0.0000000000000000000, 0.0000000000000000000 ) ) ;
#260 = ADVANCED_FACE ( 'NONE', ( #239, #146 ), #25, .F. ) ;
#261 = AXIS2_PLACEMENT_3D ( 'NONE', #53, #104, #125 ) ;
#262 = CARTESIAN_POINT ( 'NONE',  ( 29.49999999999999289, 0.0000000000000000000, 0.0000000000000000000 ) ) ;
#263 = ADVANCED_FACE ( 'NONE', ( #19, #126 ), #61, .T. ) ;
#264 = SURFACE_STYLE_USAGE ( .BOTH. , #168 ) ;
#265 = ADVANCED_FACE ( 'NONE', ( #315, #43 ), #304, .F. ) ;
#266 = EDGE_LOOP ( 'NONE', ( #277 ) ) ;
#267 = AXIS2_PLACEMENT_3D ( 'NONE', #237, #215, #66 ) ;
#268 = AXIS2_PLACEMENT_3D ( 'NONE', #51, #151, #231 ) ;
#269 = CIRCLE ( 'NONE', #122, 24.42500000000000071 ) ;
#270 = TOROIDAL_SURFACE ( 'NONE', #235, 30.42123644365851121, 7.500000000000000000 ) ;
#271 = EDGE_LOOP ( 'NONE', ( #321 ) ) ;
#272 = SHAPE_DEFINITION_REPRESENTATION ( #279, #34 ) ;
#273 = EDGE_LOOP ( 'NONE', ( #148 ) ) ;
#274 = DIRECTION ( 'NONE',  ( 0.0000000000000000000, 0.0000000000000000000, -1.000000000000000000 ) ) ;
#275 = PLANE ( 'NONE',  #195 ) ;
#276 = COLOUR_RGB ( '',0.9215686274509803377, 0.9333333333333333481, 0.9254901960784314152 ) ;
#277 = ORIENTED_EDGE ( 'NONE', *, *, #208, .T. ) ;
#278 = DIRECTION ( 'NONE',  ( 1.000000000000000000, 0.0000000000000000000, 0.0000000000000000000 ) ) ;
#279 = PRODUCT_DEFINITION_SHAPE ( 'NONE', 'NONE',  #140 ) ;
#280 = CARTESIAN_POINT ( 'NONE',  ( 9.999999999999994671, 0.0000000000000000000, 0.0000000000000000000 ) ) ;
#281 = ORIENTED_EDGE ( 'NONE', *, *, #311, .T. ) ;
#282 = FACE_OUTER_BOUND ( 'NONE', #100, .T. ) ;
#283 = DIRECTION ( 'NONE',  ( -1.000000000000000000, 0.0000000000000000000, 0.0000000000000000000 ) ) ;
#284 = FILL_AREA_STYLE_COLOUR ( '', #294 ) ;
#285 = CARTESIAN_POINT ( 'NONE',  ( 22.90000000000000213, 0.0000000000000000000, 20.99999999999999289 ) ) ;
#286 = ADVANCED_FACE ( 'NONE', ( #191, #292 ), #270, .T. ) ;
#287 = EDGE_LOOP ( 'NONE', ( #99 ) ) ;
#288 = CARTESIAN_POINT ( 'NONE',  ( 31.08108108108107714, 0.0000000000000000000, 37.75268804719840432 ) ) ;
#289 = CIRCLE ( 'NONE', #145, 37.75268804719840432 ) ;
#290 = EDGE_CURVE ( 'NONE', #63, #63, #80, .T. ) ;
#291 = VERTEX_POINT ( 'NONE', #93 ) ;
#292 = FACE_OUTER_BOUND ( 'NONE', #5, .T. ) ;
#293 = ORIENTED_EDGE ( 'NONE', *, *, #10, .F. ) ;
#294 = COLOUR_RGB ( '',0.9215686274509803377, 0.9333333333333333481, 0.9254901960784314152 ) ;
#295 = FACE_OUTER_BOUND ( 'NONE', #266, .T. ) ;
#296 = DIRECTION ( 'NONE',  ( 0.0000000000000000000, 0.0000000000000000000, 1.000000000000000000 ) ) ;
#297 = FACE_OUTER_BOUND ( 'NONE', #287, .T. ) ;
#298 = DIRECTION ( 'NONE',  ( 0.0000000000000000000, 0.0000000000000000000, 1.000000000000000000 ) ) ;
#299 = DIRECTION ( 'NONE',  ( 0.0000000000000000000, 0.0000000000000000000, -1.000000000000000000 ) ) ;
#300 = AXIS2_PLACEMENT_3D ( 'NONE', #228, #50, #156 ) ;
#301 = FACE_OUTER_BOUND ( 'NONE', #223, .T. ) ;
#302 = DIRECTION ( 'NONE',  ( -1.000000000000000000, 0.0000000000000000000, 0.0000000000000000000 ) ) ;
#303 = EDGE_CURVE ( 'NONE', #67, #67, #106, .T. ) ;
#304 = PLANE ( 'NONE',  #201 ) ;
#305 = AXIS2_PLACEMENT_3D ( 'NONE', #149, #179, #320 ) ;
#306 = CARTESIAN_POINT ( 'NONE',  ( 22.90000000000000213, 0.0000000000000000000, 23.42500000000000071 ) ) ;
#307 = UNCERTAINTY_MEASURE_WITH_UNIT (LENGTH_MEASURE( 1.000000000000000082E-05 ), #190, 'distance_accuracy_value', 'NONE');
#308 = CIRCLE ( 'NONE', #268, 23.42500000000000071 ) ;
#309 = CARTESIAN_POINT ( 'NONE',  ( -9.999999999999994671, 0.0000000000000000000, 40.00000000000000000 ) ) ;
#310 = EDGE_LOOP ( 'NONE', ( #13 ) ) ;
#311 = EDGE_CURVE ( 'NONE', #316, #316, #12, .T. ) ;
#312 =( NAMED_UNIT ( * ) PLANE_ANGLE_UNIT ( ) SI_UNIT ( $, .RADIAN. ) );
#313 = AXIS2_PLACEMENT_3D ( 'NONE', #21, #18, #176 ) ;
#314 = MANIFOLD_SOLID_BREP ( 'Fase1', #15 ) ;
#315 = FACE_BOUND ( 'NONE', #169, .T. ) ;
#316 = VERTEX_POINT ( 'NONE', #309 ) ;
#317 = ORIENTED_EDGE ( 'NONE', *, *, #108, .F. ) ;
#318 = ORIENTED_EDGE ( 'NONE', *, *, #311, .F. ) ;
#319 = DIRECTION ( 'NONE',  ( 0.0000000000000000000, 0.0000000000000000000, 1.000000000000000000 ) ) ;
#320 = DIRECTION ( 'NONE',  ( 0.0000000000000000000, 0.0000000000000000000, 1.000000000000000000 ) ) ;
#321 = ORIENTED_EDGE ( 'NONE', *, *, #194, .T. ) ;
#322 = DIRECTION ( 'NONE',  ( -1.000000000000000000, 0.0000000000000000000, 0.0000000000000000000 ) ) ;
#323 = DIRECTION ( 'NONE',  ( 0.0000000000000000000, 0.0000000000000000000, 1.000000000000000000 ) ) ;
#324 = FACE_BOUND ( 'NONE', #49, .T. ) ;
#325 = EDGE_LOOP ( 'NONE', ( #318 ) ) ;
#326 = EDGE_LOOP ( 'NONE', ( #118 ) ) ;
#327 = DIRECTION ( 'NONE',  ( 1.000000000000000000, 0.0000000000000000000, 0.0000000000000000000 ) ) ;
#328 = PRODUCT ( '0017228_PAHU-080-74-KS47x14', '0017228_PAHU-080-74-KS47x14', '', ( #242 ) ) ;
#329 = DIRECTION ( 'NONE',  ( 0.0000000000000000000, 0.0000000000000000000, 1.000000000000000000 ) ) ;
#330 = SURFACE_STYLE_USAGE ( .BOTH. , #181 ) ;
#331 = AXIS2_PLACEMENT_3D ( 'NONE', #164, #131, #89 ) ;
#332 = FACE_OUTER_BOUND ( 'NONE', #220, .T. ) ;
#333 = DIRECTION ( 'NONE',  ( 0.0000000000000000000, 0.0000000000000000000, -1.000000000000000000 ) ) ;
#334 = FILL_AREA_STYLE ('',( #284 ) ) ;
ENDSEC;
END-ISO-10303-21;
