ISO-10303-21;
HEADER;
FILE_DESCRIPTION((''),'2;1');
FILE_NAME('X:\\Zeichnung an Kunden\\87 010.stp','2018-03-07T09:47:07',('Autor'),('',''),'Top Systems','StepLib','');
FILE_SCHEMA(('CONFIG_CONTROL_DESIGN'));
ENDSEC;
DATA;
#1=APPLICATION_CONTEXT('Config control design');
#2=APPLICATION_PROTOCOL_DEFINITION('Iternarional standart','config_control_design',2001,#1);
#3=PRODUCT_CONTEXT($,#1,'mechanical');
#4=(GEOMETRIC_REPRESENTATION_CONTEXT(3) GLOBAL_UNCERTAINTY_ASSIGNED_CONTEXT((#9)) GLOBAL_UNIT_ASSIGNED_CONTEXT((#6,#8,#7)) REPRESENTATION_CONTEXT('None','3D'));
#5=DIMENSIONAL_EXPONENTS(1.00000000000000,0.000000000000000,0.000000000000000,0.000000000000000,0.000000000000000,0.000000000000000,0.000000000000000);
#6=(NAMED_UNIT(*) PLANE_ANGLE_UNIT() SI_UNIT($,.RADIAN.));
#7=(NAMED_UNIT(*) SOLID_ANGLE_UNIT() SI_UNIT($,.STERADIAN.));
#8=(NAMED_UNIT(*) LENGTH_UNIT() SI_UNIT($,.METRE.));
#9=UNCERTAINTY_MEASURE_WITH_UNIT(LENGTH_MEASURE(1.00000000000000E-006),#8,'DISTANCE_ACCURACY_VALUE',$);
#10=COLOUR_RGB($,0.733333333333333,0.733333333333333,0.733333333333333);
#11=FILL_AREA_STYLE_COLOUR($,#10);
#12=FILL_AREA_STYLE($,(#11));
#13=SURFACE_STYLE_FILL_AREA(#12);
#14=SURFACE_SIDE_STYLE($,(#13));
#15=SURFACE_STYLE_USAGE(.BOTH.,#14);
#16=PRESENTATION_STYLE_ASSIGNMENT((#15));
#17=STYLED_ITEM($,(#16),#99);
#18=CARTESIAN_POINT($,(0.00600000000000000,0.000000000000000,0.0102500000000000));
#19=DIRECTION($,(-1.00000000000000,0.000000000000000,0.000000000000000));
#20=DIRECTION($,(0.000000000000000,0.000000000000000,1.00000000000000));
#21=AXIS2_PLACEMENT_3D($,#18,#19,#20);
#22=PLANE($,#21);
#23=DIRECTION($,(1.00000000000000,-0.000000000000000,-0.000000000000000));
#24=DIRECTION($,(-0.000000000000000,0.000000000000000,-1.00000000000000));
#25=CARTESIAN_POINT($,(0.00600000000000000,0.000000000000000,0.000000000000000));
#26=AXIS2_PLACEMENT_3D($,#25,#23,#24);
#27=CIRCLE($,#26,0.00405000000000000);
#28=CARTESIAN_POINT($,(0.00600000000000000,0.000000000000000,-0.00405000000000000));
#29=VERTEX_POINT('fictive',#28);
#30=EDGE_CURVE($,#29,#29,#27,.T.);
#31=ORIENTED_EDGE($,*,*,#30,.F.);
#32=EDGE_LOOP($,(#31));
#33=FACE_BOUND($,#32,.T.);
#34=DIRECTION($,(1.00000000000000,-0.000000000000000,-0.000000000000000));
#35=DIRECTION($,(-0.000000000000000,0.000000000000000,-1.00000000000000));
#36=CARTESIAN_POINT($,(0.00600000000000000,0.000000000000000,0.000000000000000));
#37=AXIS2_PLACEMENT_3D($,#36,#34,#35);
#38=CIRCLE($,#37,0.0102500000000000);
#39=CARTESIAN_POINT($,(0.00600000000000000,0.000000000000000,-0.0102500000000000));
#40=VERTEX_POINT('fictive',#39);
#41=EDGE_CURVE($,#40,#40,#38,.T.);
#42=ORIENTED_EDGE($,*,*,#41,.T.);
#43=EDGE_LOOP($,(#42));
#44=FACE_OUTER_BOUND($,#43,.T.);
#45=ADVANCED_FACE($,(#33,#44),#22,.F.);
#46=CARTESIAN_POINT($,(0.00600000000000000,0.000000000000000,0.000000000000000));
#47=DIRECTION($,(1.00000000000000,-0.000000000000000,-0.000000000000000));
#48=DIRECTION($,(-0.000000000000000,0.000000000000000,-1.00000000000000));
#49=AXIS2_PLACEMENT_3D($,#46,#47,#48);
#50=CYLINDRICAL_SURFACE($,#49,0.00405000000000000);
#51=DIRECTION($,(1.00000000000000,-0.000000000000000,-0.000000000000000));
#52=DIRECTION($,(-0.000000000000000,0.000000000000000,-1.00000000000000));
#53=CARTESIAN_POINT($,(-0.00600000000000000,0.000000000000000,0.000000000000000));
#54=AXIS2_PLACEMENT_3D($,#53,#51,#52);
#55=CIRCLE($,#54,0.00405000000000000);
#56=CARTESIAN_POINT($,(-0.00600000000000000,0.000000000000000,-0.00405000000000000));
#57=VERTEX_POINT('fictive',#56);
#58=EDGE_CURVE($,#57,#57,#55,.T.);
#59=ORIENTED_EDGE($,*,*,#58,.F.);
#60=EDGE_LOOP($,(#59));
#61=FACE_BOUND($,#60,.T.);
#62=ORIENTED_EDGE($,*,*,#30,.T.);
#63=EDGE_LOOP($,(#62));
#64=FACE_BOUND($,#63,.T.);
#65=ADVANCED_FACE($,(#61,#64),#50,.F.);
#66=CARTESIAN_POINT($,(-0.00600000000000000,0.000000000000000,0.0102500000000000));
#67=DIRECTION($,(1.00000000000000,-0.000000000000000,-0.000000000000000));
#68=DIRECTION($,(-0.000000000000000,0.000000000000000,-1.00000000000000));
#69=AXIS2_PLACEMENT_3D($,#66,#67,#68);
#70=PLANE($,#69);
#71=DIRECTION($,(1.00000000000000,-0.000000000000000,-0.000000000000000));
#72=DIRECTION($,(-0.000000000000000,0.000000000000000,-1.00000000000000));
#73=CARTESIAN_POINT($,(-0.00600000000000000,0.000000000000000,0.000000000000000));
#74=AXIS2_PLACEMENT_3D($,#73,#71,#72);
#75=CIRCLE($,#74,0.0102500000000000);
#76=CARTESIAN_POINT($,(-0.00600000000000000,0.000000000000000,-0.0102500000000000));
#77=VERTEX_POINT('fictive',#76);
#78=EDGE_CURVE($,#77,#77,#75,.T.);
#79=ORIENTED_EDGE($,*,*,#78,.F.);
#80=EDGE_LOOP($,(#79));
#81=FACE_OUTER_BOUND($,#80,.T.);
#82=ORIENTED_EDGE($,*,*,#58,.T.);
#83=EDGE_LOOP($,(#82));
#84=FACE_BOUND($,#83,.T.);
#85=ADVANCED_FACE($,(#81,#84),#70,.F.);
#86=CARTESIAN_POINT($,(0.00600000000000000,0.000000000000000,0.000000000000000));
#87=DIRECTION($,(1.00000000000000,-0.000000000000000,-0.000000000000000));
#88=DIRECTION($,(-0.000000000000000,0.000000000000000,-1.00000000000000));
#89=AXIS2_PLACEMENT_3D($,#86,#87,#88);
#90=CYLINDRICAL_SURFACE($,#89,0.0102500000000000);
#91=ORIENTED_EDGE($,*,*,#78,.T.);
#92=EDGE_LOOP($,(#91));
#93=FACE_BOUND($,#92,.T.);
#94=ORIENTED_EDGE($,*,*,#41,.F.);
#95=EDGE_LOOP($,(#94));
#96=FACE_BOUND($,#95,.T.);
#97=ADVANCED_FACE($,(#93,#96),#90,.T.);
#98=CLOSED_SHELL($,(#45,#65,#85,#97));
#99=MANIFOLD_SOLID_BREP('Boolsche Operation_1',#98);
#100=COLOUR_RGB($,0.733333333333333,0.733333333333333,0.733333333333333);
#101=FILL_AREA_STYLE_COLOUR($,#100);
#102=FILL_AREA_STYLE($,(#101));
#103=SURFACE_STYLE_FILL_AREA(#102);
#104=SURFACE_SIDE_STYLE($,(#103));
#105=SURFACE_STYLE_USAGE(.BOTH.,#104);
#106=PRESENTATION_STYLE_ASSIGNMENT((#105));
#107=STYLED_ITEM($,(#106),#229);
#108=CARTESIAN_POINT($,(-0.00550000000000000,0.000000000000000,0.0250000000000000));
#109=DIRECTION($,(1.00000000000000,-0.000000000000000,-0.000000000000000));
#110=DIRECTION($,(-0.000000000000000,0.000000000000000,-1.00000000000000));
#111=AXIS2_PLACEMENT_3D($,#108,#109,#110);
#112=PLANE($,#111);
#113=DIRECTION($,(1.00000000000000,-0.000000000000000,-0.000000000000000));
#114=DIRECTION($,(-0.000000000000000,0.000000000000000,-1.00000000000000));
#115=CARTESIAN_POINT($,(-0.00550000000000000,0.000000000000000,0.000000000000000));
#116=AXIS2_PLACEMENT_3D($,#115,#113,#114);
#117=CIRCLE($,#116,0.0250000000000000);
#118=CARTESIAN_POINT($,(-0.00550000000000000,0.000000000000000,-0.0250000000000000));
#119=VERTEX_POINT('fictive',#118);
#120=EDGE_CURVE($,#119,#119,#117,.T.);
#121=ORIENTED_EDGE($,*,*,#120,.F.);
#122=EDGE_LOOP($,(#121));
#123=FACE_OUTER_BOUND($,#122,.T.);
#124=DIRECTION($,(-1.00000000000000,-0.000000000000000,-0.000000000000000));
#125=DIRECTION($,(-0.000000000000000,0.000000000000000,1.00000000000000));
#126=CARTESIAN_POINT($,(-0.00550000000000000,0.000000000000000,0.000000000000000));
#127=AXIS2_PLACEMENT_3D($,#126,#124,#125);
#128=CIRCLE($,#127,0.0155000000000000);
#129=CARTESIAN_POINT($,(-0.00550000000000000,0.000000000000000,0.0155000000000000));
#130=VERTEX_POINT('fictive',#129);
#131=EDGE_CURVE($,#130,#130,#128,.T.);
#132=ORIENTED_EDGE($,*,*,#131,.F.);
#133=EDGE_LOOP($,(#132));
#134=FACE_BOUND($,#133,.T.);
#135=ADVANCED_FACE($,(#123,#134),#112,.F.);
#136=CARTESIAN_POINT($,(0.00600000000000000,0.000000000000000,0.000000000000000));
#137=DIRECTION($,(1.00000000000000,-0.000000000000000,-0.000000000000000));
#138=DIRECTION($,(-0.000000000000000,0.000000000000000,-1.00000000000000));
#139=AXIS2_PLACEMENT_3D($,#136,#137,#138);
#140=CYLINDRICAL_SURFACE($,#139,0.0250000000000000);
#141=DIRECTION($,(1.00000000000000,-0.000000000000000,-0.000000000000000));
#142=DIRECTION($,(-0.000000000000000,0.000000000000000,-1.00000000000000));
#143=CARTESIAN_POINT($,(0.00550000000000000,0.000000000000000,0.000000000000000));
#144=AXIS2_PLACEMENT_3D($,#143,#141,#142);
#145=CIRCLE($,#144,0.0250000000000000);
#146=CARTESIAN_POINT($,(0.00550000000000000,0.000000000000000,-0.0250000000000000));
#147=VERTEX_POINT('fictive',#146);
#148=EDGE_CURVE($,#147,#147,#145,.T.);
#149=ORIENTED_EDGE($,*,*,#148,.F.);
#150=EDGE_LOOP($,(#149));
#151=FACE_BOUND($,#150,.T.);
#152=DIRECTION($,(1.00000000000000,-0.000000000000000,-0.000000000000000));
#153=DIRECTION($,(-0.000000000000000,0.000000000000000,-1.00000000000000));
#154=CARTESIAN_POINT($,(0.00350000000000000,0.000000000000000,0.000000000000000));
#155=AXIS2_PLACEMENT_3D($,#154,#152,#153);
#156=CIRCLE($,#155,0.0250000000000000);
#157=CARTESIAN_POINT($,(0.00350000000000000,0.000000000000000,-0.0250000000000000));
#158=VERTEX_POINT('fictive',#157);
#159=EDGE_CURVE($,#158,#158,#156,.T.);
#160=ORIENTED_EDGE($,*,*,#159,.T.);
#161=EDGE_LOOP($,(#160));
#162=FACE_BOUND($,#161,.T.);
#163=ADVANCED_FACE($,(#151,#162),#140,.T.);
#164=CARTESIAN_POINT($,(0.00550000000000000,0.000000000000000,0.0250000000000000));
#165=DIRECTION($,(-1.00000000000000,0.000000000000000,0.000000000000000));
#166=DIRECTION($,(0.000000000000000,0.000000000000000,1.00000000000000));
#167=AXIS2_PLACEMENT_3D($,#164,#165,#166);
#168=PLANE($,#167);
#169=DIRECTION($,(-1.00000000000000,-0.000000000000000,-0.000000000000000));
#170=DIRECTION($,(-0.000000000000000,0.000000000000000,1.00000000000000));
#171=CARTESIAN_POINT($,(0.00550000000000000,0.000000000000000,0.000000000000000));
#172=AXIS2_PLACEMENT_3D($,#171,#169,#170);
#173=CIRCLE($,#172,0.0155000000000000);
#174=CARTESIAN_POINT($,(0.00550000000000000,0.000000000000000,0.0155000000000000));
#175=VERTEX_POINT('fictive',#174);
#176=EDGE_CURVE($,#175,#175,#173,.T.);
#177=ORIENTED_EDGE($,*,*,#176,.T.);
#178=EDGE_LOOP($,(#177));
#179=FACE_BOUND($,#178,.T.);
#180=ORIENTED_EDGE($,*,*,#148,.T.);
#181=EDGE_LOOP($,(#180));
#182=FACE_OUTER_BOUND($,#181,.T.);
#183=ADVANCED_FACE($,(#179,#182),#168,.F.);
#184=CARTESIAN_POINT($,(0.00600000000000000,0.000000000000000,0.000000000000000));
#185=DIRECTION($,(1.00000000000000,-0.000000000000000,-0.000000000000000));
#186=DIRECTION($,(-0.000000000000000,0.000000000000000,-1.00000000000000));
#187=AXIS2_PLACEMENT_3D($,#184,#185,#186);
#188=CYLINDRICAL_SURFACE($,#187,0.0250000000000000);
#189=DIRECTION($,(1.00000000000000,-0.000000000000000,-0.000000000000000));
#190=DIRECTION($,(-0.000000000000000,0.000000000000000,-1.00000000000000));
#191=CARTESIAN_POINT($,(-0.00350000000000000,0.000000000000000,0.000000000000000));
#192=AXIS2_PLACEMENT_3D($,#191,#189,#190);
#193=CIRCLE($,#192,0.0250000000000000);
#194=CARTESIAN_POINT($,(-0.00350000000000000,0.000000000000000,-0.0250000000000000));
#195=VERTEX_POINT('fictive',#194);
#196=EDGE_CURVE($,#195,#195,#193,.T.);
#197=ORIENTED_EDGE($,*,*,#196,.F.);
#198=EDGE_LOOP($,(#197));
#199=FACE_BOUND($,#198,.T.);
#200=ORIENTED_EDGE($,*,*,#120,.T.);
#201=EDGE_LOOP($,(#200));
#202=FACE_BOUND($,#201,.T.);
#203=ADVANCED_FACE($,(#199,#202),#188,.T.);
#204=CARTESIAN_POINT($,(0.000000000000000,0.000000000000000,0.000000000000000));
#205=DIRECTION($,(1.00000000000000,-0.000000000000000,-0.000000000000000));
#206=DIRECTION($,(-0.000000000000000,0.000000000000000,-1.00000000000000));
#207=AXIS2_PLACEMENT_3D($,#204,#205,#206);
#208=TOROIDAL_SURFACE($,#207,0.0250000000000000,0.00350000000000000);
#209=ORIENTED_EDGE($,*,*,#159,.F.);
#210=EDGE_LOOP($,(#209));
#211=FACE_BOUND($,#210,.T.);
#212=ORIENTED_EDGE($,*,*,#196,.T.);
#213=EDGE_LOOP($,(#212));
#214=FACE_BOUND($,#213,.T.);
#215=ADVANCED_FACE($,(#211,#214),#208,.F.);
#216=CARTESIAN_POINT($,(-0.00600000000000000,0.000000000000000,0.000000000000000));
#217=DIRECTION($,(-1.00000000000000,-0.000000000000000,-0.000000000000000));
#218=DIRECTION($,(-0.000000000000000,0.000000000000000,1.00000000000000));
#219=AXIS2_PLACEMENT_3D($,#216,#217,#218);
#220=CYLINDRICAL_SURFACE($,#219,0.0155000000000000);
#221=ORIENTED_EDGE($,*,*,#131,.T.);
#222=EDGE_LOOP($,(#221));
#223=FACE_BOUND($,#222,.T.);
#224=ORIENTED_EDGE($,*,*,#176,.F.);
#225=EDGE_LOOP($,(#224));
#226=FACE_BOUND($,#225,.T.);
#227=ADVANCED_FACE($,(#223,#226),#220,.F.);
#228=CLOSED_SHELL($,(#135,#163,#183,#203,#215,#227));
#229=MANIFOLD_SOLID_BREP('Boolsche Operation_1',#228);
#230=COLOUR_RGB($,0.698039215686274,0.698039215686274,0.698039215686274);
#231=FILL_AREA_STYLE_COLOUR($,#230);
#232=FILL_AREA_STYLE($,(#231));
#233=SURFACE_STYLE_FILL_AREA(#232);
#234=SURFACE_SIDE_STYLE($,(#233));
#235=SURFACE_STYLE_USAGE(.BOTH.,#234);
#236=PRESENTATION_STYLE_ASSIGNMENT((#235));
#237=STYLED_ITEM($,(#236),#319);
#238=CARTESIAN_POINT($,(-0.00600000000000000,0.000000000000000,0.000000000000000));
#239=DIRECTION($,(-1.00000000000000,-0.000000000000000,-0.000000000000000));
#240=DIRECTION($,(-0.000000000000000,0.000000000000000,1.00000000000000));
#241=AXIS2_PLACEMENT_3D($,#238,#239,#240);
#242=CYLINDRICAL_SURFACE($,#241,0.0155000000000000);
#243=DIRECTION($,(-1.00000000000000,-0.000000000000000,-0.000000000000000));
#244=DIRECTION($,(-0.000000000000000,0.000000000000000,1.00000000000000));
#245=CARTESIAN_POINT($,(-0.00550000000000000,0.000000000000000,0.000000000000000));
#246=AXIS2_PLACEMENT_3D($,#245,#243,#244);
#247=CIRCLE($,#246,0.0155000000000000);
#248=CARTESIAN_POINT($,(-0.00550000000000000,0.000000000000000,0.0155000000000000));
#249=VERTEX_POINT('fictive',#248);
#250=EDGE_CURVE($,#249,#249,#247,.T.);
#251=ORIENTED_EDGE($,*,*,#250,.F.);
#252=EDGE_LOOP($,(#251));
#253=FACE_BOUND($,#252,.T.);
#254=DIRECTION($,(-1.00000000000000,-0.000000000000000,-0.000000000000000));
#255=DIRECTION($,(-0.000000000000000,0.000000000000000,1.00000000000000));
#256=CARTESIAN_POINT($,(0.00550000000000000,0.000000000000000,0.000000000000000));
#257=AXIS2_PLACEMENT_3D($,#256,#254,#255);
#258=CIRCLE($,#257,0.0155000000000000);
#259=CARTESIAN_POINT($,(0.00550000000000000,0.000000000000000,0.0155000000000000));
#260=VERTEX_POINT('fictive',#259);
#261=EDGE_CURVE($,#260,#260,#258,.T.);
#262=ORIENTED_EDGE($,*,*,#261,.T.);
#263=EDGE_LOOP($,(#262));
#264=FACE_BOUND($,#263,.T.);
#265=ADVANCED_FACE($,(#253,#264),#242,.T.);
#266=CARTESIAN_POINT($,(0.00550000000000000,0.000000000000000,0.0102500000000000));
#267=DIRECTION($,(-1.00000000000000,-0.000000000000000,-0.000000000000000));
#268=DIRECTION($,(-0.000000000000000,0.000000000000000,1.00000000000000));
#269=AXIS2_PLACEMENT_3D($,#266,#267,#268);
#270=PLANE($,#269);
#271=ORIENTED_EDGE($,*,*,#261,.F.);
#272=EDGE_LOOP($,(#271));
#273=FACE_OUTER_BOUND($,#272,.T.);
#274=DIRECTION($,(-1.00000000000000,-0.000000000000000,-0.000000000000000));
#275=DIRECTION($,(-0.000000000000000,0.000000000000000,1.00000000000000));
#276=CARTESIAN_POINT($,(0.00550000000000000,0.000000000000000,0.000000000000000));
#277=AXIS2_PLACEMENT_3D($,#276,#274,#275);
#278=CIRCLE($,#277,0.0102500000000000);
#279=CARTESIAN_POINT($,(0.00550000000000000,0.000000000000000,0.0102500000000000));
#280=VERTEX_POINT('fictive',#279);
#281=EDGE_CURVE($,#280,#280,#278,.T.);
#282=ORIENTED_EDGE($,*,*,#281,.T.);
#283=EDGE_LOOP($,(#282));
#284=FACE_BOUND($,#283,.T.);
#285=ADVANCED_FACE($,(#273,#284),#270,.F.);
#286=CARTESIAN_POINT($,(-0.00600000000000000,0.000000000000000,0.000000000000000));
#287=DIRECTION($,(-1.00000000000000,-0.000000000000000,-0.000000000000000));
#288=DIRECTION($,(-0.000000000000000,0.000000000000000,1.00000000000000));
#289=AXIS2_PLACEMENT_3D($,#286,#287,#288);
#290=CYLINDRICAL_SURFACE($,#289,0.0102500000000000);
#291=ORIENTED_EDGE($,*,*,#281,.F.);
#292=EDGE_LOOP($,(#291));
#293=FACE_BOUND($,#292,.T.);
#294=DIRECTION($,(-1.00000000000000,-0.000000000000000,-0.000000000000000));
#295=DIRECTION($,(-0.000000000000000,0.000000000000000,1.00000000000000));
#296=CARTESIAN_POINT($,(-0.00550000000000000,0.000000000000000,0.000000000000000));
#297=AXIS2_PLACEMENT_3D($,#296,#294,#295);
#298=CIRCLE($,#297,0.0102500000000000);
#299=CARTESIAN_POINT($,(-0.00550000000000000,0.000000000000000,0.0102500000000000));
#300=VERTEX_POINT('fictive',#299);
#301=EDGE_CURVE($,#300,#300,#298,.T.);
#302=ORIENTED_EDGE($,*,*,#301,.T.);
#303=EDGE_LOOP($,(#302));
#304=FACE_BOUND($,#303,.T.);
#305=ADVANCED_FACE($,(#293,#304),#290,.F.);
#306=CARTESIAN_POINT($,(-0.00550000000000000,0.000000000000000,0.0155000000000000));
#307=DIRECTION($,(1.00000000000000,0.000000000000000,0.000000000000000));
#308=DIRECTION($,(0.000000000000000,0.000000000000000,-1.00000000000000));
#309=AXIS2_PLACEMENT_3D($,#306,#307,#308);
#310=PLANE($,#309);
#311=ORIENTED_EDGE($,*,*,#301,.F.);
#312=EDGE_LOOP($,(#311));
#313=FACE_BOUND($,#312,.T.);
#314=ORIENTED_EDGE($,*,*,#250,.T.);
#315=EDGE_LOOP($,(#314));
#316=FACE_OUTER_BOUND($,#315,.T.);
#317=ADVANCED_FACE($,(#313,#316),#310,.F.);
#318=CLOSED_SHELL($,(#265,#285,#305,#317));
#319=MANIFOLD_SOLID_BREP('Rotation_3',#318);
#320=ADVANCED_BREP_SHAPE_REPRESENTATION($,(#99,#229,#319),#4);
#321=PRODUCT('None','Bodies',$,(#3));
#322=PRODUCT_RELATED_PRODUCT_CATEGORY('assembly',$,(#321));
#323=PRODUCT_DEFINITION_FORMATION($,$,#321);
#324=PRODUCT_DEFINITION_CONTEXT('part definition',#1,'design');
#325=PRODUCT_DEFINITION($,$,#323,#324);
#326=PRODUCT_DEFINITION_SHAPE($,$,#325);
#327=SHAPE_DEFINITION_REPRESENTATION(#326,#320);
ENDSEC;
END-ISO-10303-21;
