ISO-10303-21;
HEADER;
FILE_DESCRIPTION (( 'STEP AP214' ),
    '1' );
FILE_NAME ('0023920_SPG-050-32-32-G15.step',
    '2018-01-11T13:06:45',
    ( '' ),
    ( '' ),
    'SwSTEP 2.0',
    'SolidWorks 2016',
    '' );
FILE_SCHEMA (( 'AUTOMOTIVE_DESIGN' ));
ENDSEC;

DATA;
#1 = FACE_OUTER_BOUND ( 'NONE', #183, .T. ) ;
#2 =( GEOMETRIC_REPRESENTATION_CONTEXT ( 3 ) GLOBAL_UNCERTAINTY_ASSIGNED_CONTEXT ( ( #28 ) ) GLOBAL_UNIT_ASSIGNED_CONTEXT ( ( #117, #157, #138 ) ) REPRESENTATION_CONTEXT ( 'NONE', 'WORKASPACE' ) );
#3 = AXIS2_PLACEMENT_3D ( 'NONE', #54, #69, #92 ) ;
#4 = DIRECTION ( 'NONE',  ( 0.0000000000000000000, 0.0000000000000000000, -1.000000000000000000 ) ) ;
#5 = FACE_BOUND ( 'NONE', #166, .T. ) ;
#6 = DIRECTION ( 'NONE',  ( -1.000000000000000000, -0.0000000000000000000, -0.0000000000000000000 ) ) ;
#7 = ORIENTED_EDGE ( 'NONE', *, *, #125, .F. ) ;
#8 = DIRECTION ( 'NONE',  ( 0.0000000000000000000, 0.0000000000000000000, 1.000000000000000000 ) ) ;
#9 = AXIS2_PLACEMENT_3D ( 'NONE', #234, #215, #252 ) ;
#10 = DIRECTION ( 'NONE',  ( -1.000000000000000000, 0.0000000000000000000, 0.0000000000000000000 ) ) ;
#11 = CARTESIAN_POINT ( 'NONE',  ( -4.356771188001734400, 0.0000000000000000000, 0.0000000000000000000 ) ) ;
#12 = EDGE_CURVE ( 'NONE', #120, #120, #269, .T. ) ;
#13 = DIRECTION ( 'NONE',  ( -1.000000000000000000, -0.0000000000000000000, -0.0000000000000000000 ) ) ;
#14 = CARTESIAN_POINT ( 'NONE',  ( 31.47234687129263300, 0.0000000000000000000, -23.71745864663136400 ) ) ;
#15 = FACE_BOUND ( 'NONE', #51, .T. ) ;
#16 = EDGE_LOOP ( 'NONE', ( #27 ) ) ;
#17 = EDGE_CURVE ( 'NONE', #268, #268, #159, .T. ) ;
#18 = PRESENTATION_LAYER_ASSIGNMENT (  '', '', ( #41 ) ) ;
#19 = FACE_OUTER_BOUND ( 'NONE', #142, .T. ) ;
#20 = FACE_BOUND ( 'NONE', #223, .T. ) ;
#21 = ORIENTED_EDGE ( 'NONE', *, *, #265, .F. ) ;
#22 = PRESENTATION_LAYER_ASSIGNMENT (  '', '', ( #86 ) ) ;
#23 = SURFACE_STYLE_FILL_AREA ( #264 ) ;
#24 = AXIS2_PLACEMENT_3D ( 'NONE', #11, #188, #99 ) ;
#25 = ADVANCED_FACE ( 'NONE', ( #191, #228 ), #121, .T. ) ;
#26 = DIRECTION ( 'NONE',  ( 0.0000000000000000000, 0.0000000000000000000, -1.000000000000000000 ) ) ;
#27 = ORIENTED_EDGE ( 'NONE', *, *, #225, .T. ) ;
#28 = UNCERTAINTY_MEASURE_WITH_UNIT (LENGTH_MEASURE( 1.000000000000000100E-005 ), #117, 'distance_accuracy_value', 'NONE');
#29 = CARTESIAN_POINT ( 'NONE',  ( 32.00000000000000000, 0.0000000000000000000, 0.0000000000000000000 ) ) ;
#30 = CARTESIAN_POINT ( 'NONE',  ( 0.0000000000000000000, 0.0000000000000000000, 0.0000000000000000000 ) ) ;
#31 = PRODUCT_RELATED_PRODUCT_CATEGORY ( 'part', '', ( #40 ) ) ;
#32 = DIRECTION ( 'NONE',  ( 0.0000000000000000000, 0.0000000000000000000, 1.000000000000000000 ) ) ;
#33 = ORIENTED_EDGE ( 'NONE', *, *, #114, .F. ) ;
#34 =( LENGTH_UNIT ( ) NAMED_UNIT ( * ) SI_UNIT ( .MILLI., .METRE. ) );
#35 = UNCERTAINTY_MEASURE_WITH_UNIT (LENGTH_MEASURE( 1.000000000000000100E-005 ), #34, 'distance_accuracy_value', 'NONE');
#36 = CARTESIAN_POINT ( 'NONE',  ( 31.47234687129270400, 0.0000000000000000000, 0.0000000000000000000 ) ) ;
#37 = CIRCLE ( 'NONE', #201, 23.18980551792405700 ) ;
#38 = CARTESIAN_POINT ( 'NONE',  ( 0.0000000000000000000, 0.0000000000000000000, 0.0000000000000000000 ) ) ;
#39 =( NAMED_UNIT ( * ) PLANE_ANGLE_UNIT ( ) SI_UNIT ( $, .RADIAN. ) );
#40 = PRODUCT ( '0023920_SPG-050-32-32-G15', '0023920_SPG-050-32-32-G15', '', ( #224 ) ) ;
#41 = STYLED_ITEM ( 'NONE', ( #262 ), #106 ) ;
#42 = APPLICATION_CONTEXT ( 'automotive_design' ) ;
#43 = APPLICATION_CONTEXT ( 'automotive_design' ) ;
#44 = AXIS2_PLACEMENT_3D ( 'NONE', #36, #101, #178 ) ;
#45 = CIRCLE ( 'NONE', #66, 23.71745864663136400 ) ;
#46 = FACE_OUTER_BOUND ( 'NONE', #16, .T. ) ;
#47 = ORIENTED_EDGE ( 'NONE', *, *, #210, .T. ) ;
#48 = AXIS2_PLACEMENT_3D ( 'NONE', #190, #214, #211 ) ;
#49 = CONICAL_SURFACE ( 'NONE', #44, 23.71745864663135700, 0.7853981633974482800 ) ;
#50 = ADVANCED_FACE ( 'NONE', ( #105, #259 ), #146, .F. ) ;
#51 = EDGE_LOOP ( 'NONE', ( #233 ) ) ;
#52 = DIRECTION ( 'NONE',  ( 0.0000000000000000000, 0.0000000000000000000, 1.000000000000000000 ) ) ;
#53 = ORIENTED_EDGE ( 'NONE', *, *, #12, .F. ) ;
#54 = CARTESIAN_POINT ( 'NONE',  ( 0.0000000000000000000, 0.0000000000000000000, 0.0000000000000000000 ) ) ;
#55 = AXIS2_PLACEMENT_3D ( 'NONE', #218, #13, #140 ) ;
#56 = CARTESIAN_POINT ( 'NONE',  ( 32.00000000000000000, 0.0000000000000000000, 0.0000000000000000000 ) ) ;
#57 = AXIS2_PLACEMENT_3D ( 'NONE', #255, #132, #52 ) ;
#58 = DIRECTION ( 'NONE',  ( 1.000000000000000000, 0.0000000000000000000, 0.0000000000000000000 ) ) ;
#59 = ORIENTED_EDGE ( 'NONE', *, *, #17, .T. ) ;
#60 =( LENGTH_UNIT ( ) NAMED_UNIT ( * ) SI_UNIT ( .MILLI., .METRE. ) );
#61 = SURFACE_SIDE_STYLE ('',( #212 ) ) ;
#62 = ORIENTED_EDGE ( 'NONE', *, *, #103, .F. ) ;
#63 = STYLED_ITEM ( 'NONE', ( #67 ), #151 ) ;
#64 = CONICAL_SURFACE ( 'NONE', #203, 8.500000000000021300, 0.7853981633974517200 ) ;
#65 = EDGE_LOOP ( 'NONE', ( #217 ) ) ;
#66 = AXIS2_PLACEMENT_3D ( 'NONE', #257, #137, #243 ) ;
#67 = PRESENTATION_STYLE_ASSIGNMENT (( #100 ) ) ;
#68 = ORIENTED_EDGE ( 'NONE', *, *, #17, .F. ) ;
#69 = DIRECTION ( 'NONE',  ( -1.000000000000000000, -0.0000000000000000000, -0.0000000000000000000 ) ) ;
#70 = CARTESIAN_POINT ( 'NONE',  ( 1.000000000000020900, 0.0000000000000000000, 0.0000000000000000000 ) ) ;
#71 = VERTEX_POINT ( 'NONE', #118 ) ;
#72 = DIRECTION ( 'NONE',  ( 0.0000000000000000000, 0.0000000000000000000, 1.000000000000000000 ) ) ;
#73 = AXIS2_PLACEMENT_3D ( 'NONE', #113, #95, #174 ) ;
#74 = CARTESIAN_POINT ( 'NONE',  ( 6.074283351280577400, 0.0000000000000000000, 30.25000000000000000 ) ) ;
#75 = DIRECTION ( 'NONE',  ( 1.000000000000000000, -0.0000000000000000000, -0.0000000000000000000 ) ) ;
#76 = SURFACE_STYLE_FILL_AREA ( #135 ) ;
#77 = EDGE_LOOP ( 'NONE', ( #47 ) ) ;
#78 = PLANE ( 'NONE',  #122 ) ;
#79 =( NAMED_UNIT ( * ) SI_UNIT ( $, .STERADIAN. ) SOLID_ANGLE_UNIT ( ) );
#80 = SHAPE_DEFINITION_REPRESENTATION ( #156, #106 ) ;
#81 = DIRECTION ( 'NONE',  ( 1.000000000000000000, 0.0000000000000000000, 0.0000000000000000000 ) ) ;
#82 = COLOUR_RGB ( '',0.06666666666666666600, 0.4784313725490195700, 0.7568627450980391900 ) ;
#83 = CIRCLE ( 'NONE', #207, 7.500000000000000000 ) ;
#84 = EDGE_LOOP ( 'NONE', ( #33 ) ) ;
#85 = ORIENTED_EDGE ( 'NONE', *, *, #108, .T. ) ;
#86 = STYLED_ITEM ( 'NONE', ( #145 ), #235 ) ;
#87 = AXIS2_PLACEMENT_3D ( 'NONE', #30, #237, #26 ) ;
#88 = CONICAL_SURFACE ( 'NONE', #55, 25.00000000000000000, 1.396263401595466900 ) ;
#89 = CIRCLE ( 'NONE', #3, 29.25000000000000000 ) ;
#90 = DIRECTION ( 'NONE',  ( -1.000000000000000000, -0.0000000000000000000, -0.0000000000000000000 ) ) ;
#91 = CARTESIAN_POINT ( 'NONE',  ( 1.000000000000020900, 0.0000000000000000000, 0.0000000000000000000 ) ) ;
#92 = DIRECTION ( 'NONE',  ( 0.0000000000000000000, 0.0000000000000000000, -1.000000000000000000 ) ) ;
#93 = EDGE_LOOP ( 'NONE', ( #107 ) ) ;
#94 = EDGE_CURVE ( 'NONE', #227, #227, #89, .T. ) ;
#95 = DIRECTION ( 'NONE',  ( -1.000000000000000000, -0.0000000000000000000, -0.0000000000000000000 ) ) ;
#96 =( NAMED_UNIT ( * ) PLANE_ANGLE_UNIT ( ) SI_UNIT ( $, .RADIAN. ) );
#97 = FILL_AREA_STYLE_COLOUR ( '', #230 ) ;
#98 = FACE_OUTER_BOUND ( 'NONE', #251, .T. ) ;
#99 = DIRECTION ( 'NONE',  ( 0.0000000000000000000, 0.0000000000000000000, 1.000000000000000000 ) ) ;
#100 = SURFACE_STYLE_USAGE ( .BOTH. , #176 ) ;
#101 = DIRECTION ( 'NONE',  ( -1.000000000000000000, -0.0000000000000000000, -0.0000000000000000000 ) ) ;
#102 = CLOSED_SHELL ( 'NONE', ( #147, #248, #25, #127, #151, #209, #150, #231, #50, #205 ) ) ;
#103 = EDGE_CURVE ( 'NONE', #134, #134, #37, .T. ) ;
#104 = SURFACE_STYLE_USAGE ( .BOTH. , #226 ) ;
#105 = FACE_OUTER_BOUND ( 'NONE', #139, .T. ) ;
#106 = ADVANCED_BREP_SHAPE_REPRESENTATION ( '0023920_SPG-050-32-32-G15', ( #235, #175 ), #116 ) ;
#107 = ORIENTED_EDGE ( 'NONE', *, *, #94, .F. ) ;
#108 = EDGE_CURVE ( 'NONE', #126, #126, #170, .T. ) ;
#109 = CYLINDRICAL_SURFACE ( 'NONE', #24, 7.500000000000000000 ) ;
#110 = EDGE_LOOP ( 'NONE', ( #198 ) ) ;
#111 = DIRECTION ( 'NONE',  ( 0.0000000000000000000, 0.0000000000000000000, 1.000000000000000000 ) ) ;
#112 = CIRCLE ( 'NONE', #57, 30.25000000000000000 ) ;
#113 = CARTESIAN_POINT ( 'NONE',  ( -4.356771188001734400, 0.0000000000000000000, 0.0000000000000000000 ) ) ;
#114 = EDGE_CURVE ( 'NONE', #165, #165, #112, .T. ) ;
#115 = FILL_AREA_STYLE ('',( #97 ) ) ;
#116 =( GEOMETRIC_REPRESENTATION_CONTEXT ( 3 ) GLOBAL_UNCERTAINTY_ASSIGNED_CONTEXT ( ( #35 ) ) GLOBAL_UNIT_ASSIGNED_CONTEXT ( ( #34, #216, #79 ) ) REPRESENTATION_CONTEXT ( 'NONE', 'WORKASPACE' ) );
#117 =( LENGTH_UNIT ( ) NAMED_UNIT ( * ) SI_UNIT ( .MILLI., .METRE. ) );
#118 = CARTESIAN_POINT ( 'NONE',  ( 30.99999999999998600, 0.0000000000000000000, 7.500000000000000000 ) ) ;
#119 = CARTESIAN_POINT ( 'NONE',  ( 1.000000000000020900, 0.0000000000000000000, -7.500000000000000000 ) ) ;
#120 = VERTEX_POINT ( 'NONE', #160 ) ;
#121 = CONICAL_SURFACE ( 'NONE', #172, 23.68980551792406400, 0.05235987755982624700 ) ;
#122 = AXIS2_PLACEMENT_3D ( 'NONE', #161, #200, #136 ) ;
#123 = VERTEX_POINT ( 'NONE', #14 ) ;
#124 = EDGE_LOOP ( 'NONE', ( #53 ) ) ;
#125 = EDGE_CURVE ( 'NONE', #222, #222, #204, .T. ) ;
#126 = VERTEX_POINT ( 'NONE', #119 ) ;
#127 = ADVANCED_FACE ( 'NONE', ( #206, #152 ), #153, .F. ) ;
#128 = CONICAL_SURFACE ( 'NONE', #87, 29.25000000000000000, 0.7853981633974517200 ) ;
#129 = ORIENTED_EDGE ( 'NONE', *, *, #108, .F. ) ;
#130 = AXIS2_PLACEMENT_3D ( 'NONE', #91, #10, #4 ) ;
#131 = CARTESIAN_POINT ( 'NONE',  ( 7.000000000000000900, 0.0000000000000000000, 0.0000000000000000000 ) ) ;
#132 = DIRECTION ( 'NONE',  ( -1.000000000000000000, -0.0000000000000000000, -0.0000000000000000000 ) ) ;
#133 = PRESENTATION_LAYER_ASSIGNMENT (  '', '', ( #63 ) ) ;
#134 = VERTEX_POINT ( 'NONE', #219 ) ;
#135 = FILL_AREA_STYLE ('',( #256 ) ) ;
#136 = DIRECTION ( 'NONE',  ( 0.0000000000000000000, 0.0000000000000000000, -1.000000000000000000 ) ) ;
#137 = DIRECTION ( 'NONE',  ( -1.000000000000000000, -0.0000000000000000000, -0.0000000000000000000 ) ) ;
#138 =( NAMED_UNIT ( * ) SI_UNIT ( $, .STERADIAN. ) SOLID_ANGLE_UNIT ( ) );
#139 = EDGE_LOOP ( 'NONE', ( #68 ) ) ;
#140 = DIRECTION ( 'NONE',  ( 0.0000000000000000000, 0.0000000000000000000, 1.000000000000000000 ) ) ;
#141 = FILL_AREA_STYLE_COLOUR ( '', #82 ) ;
#142 = EDGE_LOOP ( 'NONE', ( #21 ) ) ;
#143 = DIRECTION ( 'NONE',  ( 0.0000000000000000000, 0.0000000000000000000, 1.000000000000000000 ) ) ;
#144 = APPLICATION_PROTOCOL_DEFINITION ( 'draft international standard', 'automotive_design', 1998, #43 ) ;
#145 = PRESENTATION_STYLE_ASSIGNMENT (( #240 ) ) ;
#146 = CONICAL_SURFACE ( 'NONE', #184, 7.500000000000000000, 0.7853981633974487200 ) ;
#147 = ADVANCED_FACE ( 'NONE', ( #46, #98 ), #247, .T. ) ;
#148 = COLOUR_RGB ( '',0.7529411764705882200, 0.7529411764705882200, 0.7529411764705882200 ) ;
#149 = MECHANICAL_DESIGN_GEOMETRIC_PRESENTATION_REPRESENTATION (  '', ( #41 ), #164 ) ;
#150 = ADVANCED_FACE ( 'NONE', ( #167, #182 ), #128, .T. ) ;
#151 = ADVANCED_FACE ( 'NONE', ( #1, #189 ), #109, .F. ) ;
#152 = FACE_OUTER_BOUND ( 'NONE', #162, .T. ) ;
#153 = PLANE ( 'NONE',  #9 ) ;
#154 = CARTESIAN_POINT ( 'NONE',  ( 32.00000000000000000, 0.0000000000000000000, 0.0000000000000000000 ) ) ;
#155 = ORIENTED_EDGE ( 'NONE', *, *, #103, .T. ) ;
#156 = PRODUCT_DEFINITION_SHAPE ( 'NONE', 'NONE',  #245 ) ;
#157 =( NAMED_UNIT ( * ) PLANE_ANGLE_UNIT ( ) SI_UNIT ( $, .RADIAN. ) );
#158 = FACE_OUTER_BOUND ( 'NONE', #253, .T. ) ;
#159 = CIRCLE ( 'NONE', #48, 8.500000000000021300 ) ;
#160 = CARTESIAN_POINT ( 'NONE',  ( 32.00000000000000000, 0.0000000000000000000, 8.500000000000021300 ) ) ;
#161 = CARTESIAN_POINT ( 'NONE',  ( 0.0000000000000000000, 7.500000000000000000, 0.0000000000000000000 ) ) ;
#162 = EDGE_LOOP ( 'NONE', ( #155 ) ) ;
#163 =( NAMED_UNIT ( * ) SI_UNIT ( $, .STERADIAN. ) SOLID_ANGLE_UNIT ( ) );
#164 =( GEOMETRIC_REPRESENTATION_CONTEXT ( 3 ) GLOBAL_UNCERTAINTY_ASSIGNED_CONTEXT ( ( #185 ) ) GLOBAL_UNIT_ASSIGNED_CONTEXT ( ( #266, #39, #163 ) ) REPRESENTATION_CONTEXT ( 'NONE', 'WORKASPACE' ) );
#165 = VERTEX_POINT ( 'NONE', #74 ) ;
#166 = EDGE_LOOP ( 'NONE', ( #208 ) ) ;
#167 = FACE_OUTER_BOUND ( 'NONE', #179, .T. ) ;
#168 = DIRECTION ( 'NONE',  ( 0.0000000000000000000, 0.0000000000000000000, 1.000000000000000000 ) ) ;
#169 = CIRCLE ( 'NONE', #238, 30.25000000000000000 ) ;
#170 = CIRCLE ( 'NONE', #130, 7.500000000000000000 ) ;
#171 = DIRECTION ( 'NONE',  ( -1.000000000000000000, -0.0000000000000000000, -0.0000000000000000000 ) ) ;
#172 = AXIS2_PLACEMENT_3D ( 'NONE', #154, #90, #111 ) ;
#173 = DIRECTION ( 'NONE',  ( -1.000000000000000000, 0.0000000000000000000, 0.0000000000000000000 ) ) ;
#174 = DIRECTION ( 'NONE',  ( 0.0000000000000000000, 0.0000000000000000000, 1.000000000000000000 ) ) ;
#175 = AXIS2_PLACEMENT_3D ( 'NONE', #38, #143, #81 ) ;
#176 = SURFACE_SIDE_STYLE ('',( #76 ) ) ;
#177 = UNCERTAINTY_MEASURE_WITH_UNIT (LENGTH_MEASURE( 1.000000000000000100E-005 ), #60, 'distance_accuracy_value', 'NONE');
#178 = DIRECTION ( 'NONE',  ( 0.0000000000000000000, 0.0000000000000000000, 1.000000000000000000 ) ) ;
#179 = EDGE_LOOP ( 'NONE', ( #263 ) ) ;
#180 = CARTESIAN_POINT ( 'NONE',  ( 32.00000000000000000, 0.0000000000000000000, 0.0000000000000000000 ) ) ;
#181 = PRODUCT_DEFINITION_CONTEXT ( 'detailed design', #43, 'design' ) ;
#182 = FACE_BOUND ( 'NONE', #93, .T. ) ;
#183 = EDGE_LOOP ( 'NONE', ( #85 ) ) ;
#184 = AXIS2_PLACEMENT_3D ( 'NONE', #70, #173, #32 ) ;
#185 = UNCERTAINTY_MEASURE_WITH_UNIT (LENGTH_MEASURE( 1.000000000000000100E-005 ), #266, 'distance_accuracy_value', 'NONE');
#186 = PRODUCT_DEFINITION_FORMATION_WITH_SPECIFIED_SOURCE ( 'ANY', '', #40, .NOT_KNOWN. ) ;
#187 = FACE_OUTER_BOUND ( 'NONE', #124, .T. ) ;
#188 = DIRECTION ( 'NONE',  ( -1.000000000000000000, -0.0000000000000000000, -0.0000000000000000000 ) ) ;
#189 = FACE_OUTER_BOUND ( 'NONE', #77, .T. ) ;
#190 = CARTESIAN_POINT ( 'NONE',  ( 0.0000000000000000000, 0.0000000000000000000, 0.0000000000000000000 ) ) ;
#191 = FACE_BOUND ( 'NONE', #65, .T. ) ;
#192 = DIRECTION ( 'NONE',  ( 0.0000000000000000000, 0.0000000000000000000, 1.000000000000000000 ) ) ;
#193 = AXIS2_PLACEMENT_3D ( 'NONE', #131, #6, #8 ) ;
#194 = CARTESIAN_POINT ( 'NONE',  ( 0.0000000000000000000, 0.0000000000000000000, -29.25000000000000000 ) ) ;
#195 =( NAMED_UNIT ( * ) SI_UNIT ( $, .STERADIAN. ) SOLID_ANGLE_UNIT ( ) );
#196 = CARTESIAN_POINT ( 'NONE',  ( 0.0000000000000000000, 0.0000000000000000000, -8.500000000000021300 ) ) ;
#197 = FACE_OUTER_BOUND ( 'NONE', #84, .T. ) ;
#198 = ORIENTED_EDGE ( 'NONE', *, *, #12, .T. ) ;
#199 = CARTESIAN_POINT ( 'NONE',  ( 30.99999999999998600, 0.0000000000000000000, 0.0000000000000000000 ) ) ;
#200 = DIRECTION ( 'NONE',  ( 1.000000000000000000, 0.0000000000000000000, 0.0000000000000000000 ) ) ;
#201 = AXIS2_PLACEMENT_3D ( 'NONE', #56, #236, #168 ) ;
#202 = ORIENTED_EDGE ( 'NONE', *, *, #114, .T. ) ;
#203 = AXIS2_PLACEMENT_3D ( 'NONE', #180, #75, #239 ) ;
#204 = CIRCLE ( 'NONE', #193, 25.00000000000000000 ) ;
#205 = ADVANCED_FACE ( 'NONE', ( #15, #187 ), #64, .F. ) ;
#206 = FACE_BOUND ( 'NONE', #110, .T. ) ;
#207 = AXIS2_PLACEMENT_3D ( 'NONE', #199, #220, #72 ) ;
#208 = ORIENTED_EDGE ( 'NONE', *, *, #125, .T. ) ;
#209 = ADVANCED_FACE ( 'NONE', ( #258, #158 ), #78, .F. ) ;
#210 = EDGE_CURVE ( 'NONE', #71, #71, #83, .T. ) ;
#211 = DIRECTION ( 'NONE',  ( 0.0000000000000000000, 0.0000000000000000000, -1.000000000000000000 ) ) ;
#212 = SURFACE_STYLE_FILL_AREA ( #115 ) ;
#213 = EDGE_LOOP ( 'NONE', ( #59 ) ) ;
#214 = DIRECTION ( 'NONE',  ( 1.000000000000000000, 0.0000000000000000000, 0.0000000000000000000 ) ) ;
#215 = DIRECTION ( 'NONE',  ( -1.000000000000000000, 0.0000000000000000000, -0.0000000000000000000 ) ) ;
#216 =( NAMED_UNIT ( * ) PLANE_ANGLE_UNIT ( ) SI_UNIT ( $, .RADIAN. ) );
#217 = ORIENTED_EDGE ( 'NONE', *, *, #265, .T. ) ;
#218 = CARTESIAN_POINT ( 'NONE',  ( 7.000000000000000900, 0.0000000000000000000, 0.0000000000000000000 ) ) ;
#219 = CARTESIAN_POINT ( 'NONE',  ( 32.00000000000000000, 0.0000000000000000000, 23.18980551792405700 ) ) ;
#220 = DIRECTION ( 'NONE',  ( 1.000000000000000000, -0.0000000000000000000, -0.0000000000000000000 ) ) ;
#221 = DIRECTION ( 'NONE',  ( 0.0000000000000000000, 0.0000000000000000000, -1.000000000000000000 ) ) ;
#222 = VERTEX_POINT ( 'NONE', #261 ) ;
#223 = EDGE_LOOP ( 'NONE', ( #62 ) ) ;
#224 = PRODUCT_CONTEXT ( 'NONE', #42, 'mechanical' ) ;
#225 = EDGE_CURVE ( 'NONE', #232, #232, #169, .T. ) ;
#226 = SURFACE_SIDE_STYLE ('',( #23 ) ) ;
#227 = VERTEX_POINT ( 'NONE', #194 ) ;
#228 = FACE_OUTER_BOUND ( 'NONE', #241, .T. ) ;
#229 =( GEOMETRIC_REPRESENTATION_CONTEXT ( 3 ) GLOBAL_UNCERTAINTY_ASSIGNED_CONTEXT ( ( #177 ) ) GLOBAL_UNIT_ASSIGNED_CONTEXT ( ( #60, #96, #195 ) ) REPRESENTATION_CONTEXT ( 'NONE', 'WORKASPACE' ) );
#230 = COLOUR_RGB ( '',0.06666666666666666600, 0.4784313725490195700, 0.7568627450980391900 ) ;
#231 = ADVANCED_FACE ( 'NONE', ( #20, #19 ), #49, .T. ) ;
#232 = VERTEX_POINT ( 'NONE', #260 ) ;
#233 = ORIENTED_EDGE ( 'NONE', *, *, #210, .F. ) ;
#234 = CARTESIAN_POINT ( 'NONE',  ( 32.00000000000000000, 23.68980551792406400, 0.0000000000000000000 ) ) ;
#235 = MANIFOLD_SOLID_BREP ( 'Fase-Bohrg-Kern', #102 ) ;
#236 = DIRECTION ( 'NONE',  ( 1.000000000000000000, 0.0000000000000000000, 0.0000000000000000000 ) ) ;
#237 = DIRECTION ( 'NONE',  ( 1.000000000000000000, 0.0000000000000000000, 0.0000000000000000000 ) ) ;
#238 = AXIS2_PLACEMENT_3D ( 'NONE', #242, #58, #221 ) ;
#239 = DIRECTION ( 'NONE',  ( 0.0000000000000000000, 0.0000000000000000000, -1.000000000000000000 ) ) ;
#240 = SURFACE_STYLE_USAGE ( .BOTH. , #61 ) ;
#241 = EDGE_LOOP ( 'NONE', ( #7 ) ) ;
#242 = CARTESIAN_POINT ( 'NONE',  ( 0.9999999999999940000, 0.0000000000000000000, 0.0000000000000000000 ) ) ;
#243 = DIRECTION ( 'NONE',  ( 0.0000000000000000000, 0.0000000000000000000, -1.000000000000000000 ) ) ;
#244 = ORIENTED_EDGE ( 'NONE', *, *, #94, .T. ) ;
#245 = PRODUCT_DEFINITION ( 'UNKNOWN', '', #186, #181 ) ;
#246 = APPLICATION_PROTOCOL_DEFINITION ( 'draft international standard', 'automotive_design', 1998, #42 ) ;
#247 = CYLINDRICAL_SURFACE ( 'NONE', #73, 30.25000000000000000 ) ;
#248 = ADVANCED_FACE ( 'NONE', ( #197, #5 ), #88, .T. ) ;
#249 = EDGE_LOOP ( 'NONE', ( #129 ) ) ;
#250 = AXIS2_PLACEMENT_3D ( 'NONE', #29, #171, #192 ) ;
#251 = EDGE_LOOP ( 'NONE', ( #202 ) ) ;
#252 = DIRECTION ( 'NONE',  ( -0.0000000000000000000, 0.0000000000000000000, 1.000000000000000000 ) ) ;
#253 = EDGE_LOOP ( 'NONE', ( #244 ) ) ;
#254 = MECHANICAL_DESIGN_GEOMETRIC_PRESENTATION_REPRESENTATION (  '', ( #86 ), #2 ) ;
#255 = CARTESIAN_POINT ( 'NONE',  ( 6.074283351280577400, 0.0000000000000000000, 0.0000000000000000000 ) ) ;
#256 = FILL_AREA_STYLE_COLOUR ( '', #148 ) ;
#257 = CARTESIAN_POINT ( 'NONE',  ( 31.47234687129263300, 0.0000000000000000000, 0.0000000000000000000 ) ) ;
#258 = FACE_BOUND ( 'NONE', #213, .T. ) ;
#259 = FACE_BOUND ( 'NONE', #249, .T. ) ;
#260 = CARTESIAN_POINT ( 'NONE',  ( 0.9999999999999940000, 0.0000000000000000000, -30.25000000000000000 ) ) ;
#261 = CARTESIAN_POINT ( 'NONE',  ( 7.000000000000000900, 0.0000000000000000000, 25.00000000000000000 ) ) ;
#262 = PRESENTATION_STYLE_ASSIGNMENT (( #104 ) ) ;
#263 = ORIENTED_EDGE ( 'NONE', *, *, #225, .F. ) ;
#264 = FILL_AREA_STYLE ('',( #141 ) ) ;
#265 = EDGE_CURVE ( 'NONE', #123, #123, #45, .T. ) ;
#266 =( LENGTH_UNIT ( ) NAMED_UNIT ( * ) SI_UNIT ( .MILLI., .METRE. ) );
#267 = MECHANICAL_DESIGN_GEOMETRIC_PRESENTATION_REPRESENTATION (  '', ( #63 ), #229 ) ;
#268 = VERTEX_POINT ( 'NONE', #196 ) ;
#269 = CIRCLE ( 'NONE', #250, 8.500000000000021300 ) ;
ENDSEC;
END-ISO-10303-21;
