ISO-10303-21;
HEADER;
FILE_DESCRIPTION (( 'STEP AP214' ),
    '1' );
FILE_NAME ('0026916.step',
    '2020-09-30T12:15:10',
    ( '' ),
    ( '' ),
    'SwSTEP 2.0',
    'SolidWorks 2018',
    '' );
FILE_SCHEMA (( 'AUTOMOTIVE_DESIGN' ));
ENDSEC;

DATA;
#1 = DIRECTION ( 'NONE',  ( 0.0000000000000000000, 0.0000000000000000000, 1.000000000000000000 ) ) ;
#2 = FILL_AREA_STYLE ('',( #69 ) ) ;
#3 = CLOSED_SHELL ( 'NONE', ( #201, #200, #174, #14, #303, #79, #364, #299, #176, #235, #16, #85 ) ) ;
#4 = DIRECTION ( 'NONE',  ( -1.000000000000000000, -0.0000000000000000000, -0.0000000000000000000 ) ) ;
#5 = ORIENTED_EDGE ( 'NONE', *, *, #225, .F. ) ;
#6 = AXIS2_PLACEMENT_3D ( 'NONE', #123, #286, #352 ) ;
#7 = CARTESIAN_POINT ( 'NONE',  ( 19.00000000000000000, 0.0000000000000000000, 0.0000000000000000000 ) ) ;
#8 = ORIENTED_EDGE ( 'NONE', *, *, #369, .T. ) ;
#9 = PRODUCT_CONTEXT ( 'NONE', #168, 'mechanical' ) ;
#10 = DIRECTION ( 'NONE',  ( 0.0000000000000000000, -1.000000000000000000, 0.0000000000000000000 ) ) ;
#11 = EDGE_CURVE ( 'NONE', #313, #156, #296, .T. ) ;
#12 = DIRECTION ( 'NONE',  ( 0.0000000000000000000, 1.000000000000000000, -5.421010862427532425E-15 ) ) ;
#13 = VECTOR ( 'NONE', #210, 1000.000000000000000 ) ;
#14 = ADVANCED_FACE ( 'NONE', ( #318 ), #402, .F. ) ;
#15 = ADVANCED_BREP_SHAPE_REPRESENTATION ( '0026916', ( #408, #326 ), #271 ) ;
#16 = ADVANCED_FACE ( 'NONE', ( #227 ), #28, .F. ) ;
#17 = EDGE_CURVE ( 'NONE', #368, #272, #135, .T. ) ;
#18 = ORIENTED_EDGE ( 'NONE', *, *, #180, .T. ) ;
#19 = ORIENTED_EDGE ( 'NONE', *, *, #265, .T. ) ;
#20 = EDGE_LOOP ( 'NONE', ( #203, #241, #269, #115 ) ) ;
#21 = CYLINDRICAL_SURFACE ( 'NONE', #222, 13.99999999999999822 ) ;
#22 = AXIS2_PLACEMENT_3D ( 'NONE', #44, #267, #107 ) ;
#23 = CARTESIAN_POINT ( 'NONE',  ( 19.00000000000000000, 0.0000000000000000000, 13.99999999999999822 ) ) ;
#24 = ORIENTED_EDGE ( 'NONE', *, *, #390, .F. ) ;
#25 = DIRECTION ( 'NONE',  ( -1.000000000000000000, -0.0000000000000000000, -0.0000000000000000000 ) ) ;
#26 = AXIS2_PLACEMENT_3D ( 'NONE', #33, #253, #97 ) ;
#27 = ORIENTED_EDGE ( 'NONE', *, *, #30, .T. ) ;
#28 = PLANE ( 'NONE',  #290 ) ;
#29 = CARTESIAN_POINT ( 'NONE',  ( 19.00000000000000000, 0.0000000000000000000, 13.99999999999999822 ) ) ;
#30 = EDGE_CURVE ( 'NONE', #329, #214, #389, .T. ) ;
#31 = LINE ( 'NONE', #172, #185 ) ;
#32 = DIRECTION ( 'NONE',  ( 0.0000000000000000000, 0.0000000000000000000, 1.000000000000000000 ) ) ;
#33 = CARTESIAN_POINT ( 'NONE',  ( 0.0000000000000000000, 0.0000000000000000000, -98.00000000000000000 ) ) ;
#34 = DIRECTION ( 'NONE',  ( -1.000000000000000000, -0.0000000000000000000, -0.0000000000000000000 ) ) ;
#35 = CARTESIAN_POINT ( 'NONE',  ( 19.00000000000000000, -14.00000000000000000, -98.00000000000000000 ) ) ;
#36 = CARTESIAN_POINT ( 'NONE',  ( 0.0000000000000000000, 0.0000000000000000000, 0.0000000000000000000 ) ) ;
#37 =( NAMED_UNIT ( * ) PLANE_ANGLE_UNIT ( ) SI_UNIT ( $, .RADIAN. ) );
#38 = DIRECTION ( 'NONE',  ( 0.0000000000000000000, 0.0000000000000000000, 1.000000000000000000 ) ) ;
#39 = DIRECTION ( 'NONE',  ( 0.0000000000000000000, 0.0000000000000000000, 1.000000000000000000 ) ) ;
#40 = DIRECTION ( 'NONE',  ( -1.000000000000000000, -0.0000000000000000000, -0.0000000000000000000 ) ) ;
#41 =( NAMED_UNIT ( * ) SI_UNIT ( $, .STERADIAN. ) SOLID_ANGLE_UNIT ( ) );
#42 =( GEOMETRIC_REPRESENTATION_CONTEXT ( 3 ) GLOBAL_UNCERTAINTY_ASSIGNED_CONTEXT ( ( #277 ) ) GLOBAL_UNIT_ASSIGNED_CONTEXT ( ( #362, #37, #72 ) ) REPRESENTATION_CONTEXT ( 'NONE', 'WORKASPACE' ) );
#43 = ORIENTED_EDGE ( 'NONE', *, *, #180, .F. ) ;
#44 = CARTESIAN_POINT ( 'NONE',  ( 19.00000000000000000, 0.0000000000000000000, -98.00000000000000000 ) ) ;
#45 = CARTESIAN_POINT ( 'NONE',  ( 19.00000000000000000, 0.0000000000000000000, 0.0000000000000000000 ) ) ;
#46 = VECTOR ( 'NONE', #34, 1000.000000000000000 ) ;
#47 = SHAPE_DEFINITION_REPRESENTATION ( #302, #15 ) ;
#48 = EDGE_CURVE ( 'NONE', #393, #329, #388, .T. ) ;
#49 = ORIENTED_EDGE ( 'NONE', *, *, #132, .T. ) ;
#50 = PRODUCT_DEFINITION_FORMATION_WITH_SPECIFIED_SOURCE ( 'ANY', '', #112, .NOT_KNOWN. ) ;
#51 = VECTOR ( 'NONE', #133, 1000.000000000000000 ) ;
#52 = ORIENTED_EDGE ( 'NONE', *, *, #116, .T. ) ;
#53 = CYLINDRICAL_SURFACE ( 'NONE', #74, 13.99999999999999822 ) ;
#54 = ORIENTED_EDGE ( 'NONE', *, *, #265, .F. ) ;
#55 = SURFACE_STYLE_FILL_AREA ( #2 ) ;
#56 = CARTESIAN_POINT ( 'NONE',  ( 19.00000000000000000, 13.19999999999999929, 0.0000000000000000000 ) ) ;
#57 = DIRECTION ( 'NONE',  ( -1.000000000000000000, -0.0000000000000000000, -0.0000000000000000000 ) ) ;
#58 = LINE ( 'NONE', #383, #254 ) ;
#59 = COLOUR_RGB ( '',0.7921568627450980005, 0.8196078431372548767, 0.9333333333333333481 ) ;
#60 = CARTESIAN_POINT ( 'NONE',  ( 19.00000000000000000, 13.99999999999999822, 8.572527594031472204E-16 ) ) ;
#61 = DIRECTION ( 'NONE',  ( 0.0000000000000000000, -0.0000000000000000000, -1.000000000000000000 ) ) ;
#62 = DIRECTION ( 'NONE',  ( -1.000000000000000000, -0.0000000000000000000, 0.0000000000000000000 ) ) ;
#63 = AXIS2_PLACEMENT_3D ( 'NONE', #259, #292, #75 ) ;
#64 = CARTESIAN_POINT ( 'NONE',  ( 19.00000000000000000, -13.19999999999999929, -98.00000000000000000 ) ) ;
#65 = CARTESIAN_POINT ( 'NONE',  ( 19.00000000000000000, 13.99999999999999822, 8.572527594031472204E-16 ) ) ;
#66 = VECTOR ( 'NONE', #412, 1000.000000000000000 ) ;
#67 = CIRCLE ( 'NONE', #400, 13.99999999999999822 ) ;
#68 = DIRECTION ( 'NONE',  ( -0.0000000000000000000, -0.0000000000000000000, 1.000000000000000000 ) ) ;
#69 = FILL_AREA_STYLE_COLOUR ( '', #340 ) ;
#70 = ORIENTED_EDGE ( 'NONE', *, *, #17, .F. ) ;
#71 = DIRECTION ( 'NONE',  ( 0.0000000000000000000, 0.0000000000000000000, 1.000000000000000000 ) ) ;
#72 =( NAMED_UNIT ( * ) SI_UNIT ( $, .STERADIAN. ) SOLID_ANGLE_UNIT ( ) );
#73 = ORIENTED_EDGE ( 'NONE', *, *, #342, .F. ) ;
#74 = AXIS2_PLACEMENT_3D ( 'NONE', #384, #4, #1 ) ;
#75 = DIRECTION ( 'NONE',  ( 0.0000000000000000000, 0.0000000000000000000, 1.000000000000000000 ) ) ;
#76 = CARTESIAN_POINT ( 'NONE',  ( 19.00000000000000000, 13.19999999999999929, 0.0000000000000000000 ) ) ;
#77 = LINE ( 'NONE', #127, #317 ) ;
#78 = ORIENTED_EDGE ( 'NONE', *, *, #396, .T. ) ;
#79 = ADVANCED_FACE ( 'NONE', ( #363 ), #190, .F. ) ;
#80 = EDGE_CURVE ( 'NONE', #169, #231, #367, .T. ) ;
#81 = EDGE_LOOP ( 'NONE', ( #86, #240, #161, #19, #49, #310, #177, #124, #244, #307 ) ) ;
#82 = SURFACE_SIDE_STYLE ('',( #213 ) ) ;
#83 = CARTESIAN_POINT ( 'NONE',  ( 0.0000000000000000000, -13.19999999999999929, -1.734723475976807094E-15 ) ) ;
#84 = CYLINDRICAL_SURFACE ( 'NONE', #407, 13.99999999999999822 ) ;
#85 = ADVANCED_FACE ( 'NONE', ( #321 ), #192, .T. ) ;
#86 = ORIENTED_EDGE ( 'NONE', *, *, #245, .T. ) ;
#87 = EDGE_CURVE ( 'NONE', #231, #401, #204, .T. ) ;
#88 = CIRCLE ( 'NONE', #273, 13.99999999999999822 ) ;
#89 = EDGE_CURVE ( 'NONE', #358, #324, #159, .T. ) ;
#90 = STYLED_ITEM ( 'NONE', ( #391 ), #408 ) ;
#91 = AXIS2_PLACEMENT_3D ( 'NONE', #165, #40, #32 ) ;
#92 = ORIENTED_EDGE ( 'NONE', *, *, #225, .T. ) ;
#93 = ORIENTED_EDGE ( 'NONE', *, *, #397, .F. ) ;
#94 = DIRECTION ( 'NONE',  ( -1.000000000000000000, -0.0000000000000000000, -0.0000000000000000000 ) ) ;
#95 = CARTESIAN_POINT ( 'NONE',  ( 0.0000000000000000000, 13.19999999999999929, 0.0000000000000000000 ) ) ;
#96 = LINE ( 'NONE', #60, #13 ) ;
#97 = DIRECTION ( 'NONE',  ( 0.0000000000000000000, 0.0000000000000000000, 1.000000000000000000 ) ) ;
#98 = DIRECTION ( 'NONE',  ( 0.0000000000000000000, -1.000000000000000000, 0.0000000000000000000 ) ) ;
#99 = ORIENTED_EDGE ( 'NONE', *, *, #369, .F. ) ;
#100 = CARTESIAN_POINT ( 'NONE',  ( 0.0000000000000000000, 0.0000000000000000000, 13.99999999999999822 ) ) ;
#101 = AXIS2_PLACEMENT_3D ( 'NONE', #409, #261, #255 ) ;
#102 = APPLICATION_PROTOCOL_DEFINITION ( 'draft international standard', 'automotive_design', 1998, #168 ) ;
#103 = DIRECTION ( 'NONE',  ( -1.000000000000000000, -0.0000000000000000000, -0.0000000000000000000 ) ) ;
#104 = EDGE_LOOP ( 'NONE', ( #247, #264, #365, #78 ) ) ;
#105 = DIRECTION ( 'NONE',  ( 0.0000000000000000000, 0.0000000000000000000, 1.000000000000000000 ) ) ;
#106 = DIRECTION ( 'NONE',  ( 0.0000000000000000000, 0.0000000000000000000, 1.000000000000000000 ) ) ;
#107 = DIRECTION ( 'NONE',  ( 0.0000000000000000000, 0.0000000000000000000, 1.000000000000000000 ) ) ;
#108 = AXIS2_PLACEMENT_3D ( 'NONE', #350, #158, #184 ) ;
#109 = CIRCLE ( 'NONE', #208, 13.20000000000000284 ) ;
#110 = AXIS2_PLACEMENT_3D ( 'NONE', #131, #294, #61 ) ;
#111 = ORIENTED_EDGE ( 'NONE', *, *, #142, .F. ) ;
#112 = PRODUCT ( '0026916', '0026916', '', ( #9 ) ) ;
#113 = EDGE_LOOP ( 'NONE', ( #117, #334, #285, #173 ) ) ;
#114 = VECTOR ( 'NONE', #12, 1000.000000000000000 ) ;
#115 = ORIENTED_EDGE ( 'NONE', *, *, #337, .F. ) ;
#116 = EDGE_CURVE ( 'NONE', #401, #214, #122, .T. ) ;
#117 = ORIENTED_EDGE ( 'NONE', *, *, #80, .F. ) ;
#118 = FILL_AREA_STYLE_COLOUR ( '', #59 ) ;
#119 = CARTESIAN_POINT ( 'NONE',  ( 0.0000000000000000000, 14.00000000000000000, -8.673617379884035472E-16 ) ) ;
#120 = ORIENTED_EDGE ( 'NONE', *, *, #245, .F. ) ;
#121 = CIRCLE ( 'NONE', #22, 13.20000000000000284 ) ;
#122 = LINE ( 'NONE', #289, #410 ) ;
#123 = CARTESIAN_POINT ( 'NONE',  ( 0.0000000000000000000, 0.0000000000000000000, 0.0000000000000000000 ) ) ;
#124 = ORIENTED_EDGE ( 'NONE', *, *, #125, .T. ) ;
#125 = EDGE_CURVE ( 'NONE', #141, #313, #229, .T. ) ;
#126 = DIRECTION ( 'NONE',  ( 0.0000000000000000000, 0.0000000000000000000, 1.000000000000000000 ) ) ;
#127 = CARTESIAN_POINT ( 'NONE',  ( 19.00000000000000000, -13.99999999999999822, 2.602085213965210642E-15 ) ) ;
#128 = CARTESIAN_POINT ( 'NONE',  ( 0.0000000000000000000, -14.00000000000000000, -98.00000000000000000 ) ) ;
#129 = CARTESIAN_POINT ( 'NONE',  ( 19.00000000000000000, 0.0000000000000000000, 0.0000000000000000000 ) ) ;
#130 = APPLICATION_CONTEXT ( 'automotive_design' ) ;
#131 = CARTESIAN_POINT ( 'NONE',  ( 19.00000000000000000, 14.00000000000000000, -8.673617379884035472E-16 ) ) ;
#132 = EDGE_CURVE ( 'NONE', #358, #171, #234, .T. ) ;
#133 = DIRECTION ( 'NONE',  ( -1.000000000000000000, -0.0000000000000000000, -0.0000000000000000000 ) ) ;
#134 = FACE_OUTER_BOUND ( 'NONE', #20, .T. ) ;
#135 = LINE ( 'NONE', #119, #212 ) ;
#136 = VECTOR ( 'NONE', #57, 1000.000000000000000 ) ;
#137 = ORIENTED_EDGE ( 'NONE', *, *, #233, .T. ) ;
#138 = DIRECTION ( 'NONE',  ( 0.0000000000000000000, 0.0000000000000000000, 1.000000000000000000 ) ) ;
#139 = AXIS2_PLACEMENT_3D ( 'NONE', #323, #406, #355 ) ;
#140 = VERTEX_POINT ( 'NONE', #260 ) ;
#141 = VERTEX_POINT ( 'NONE', #65 ) ;
#142 = EDGE_CURVE ( 'NONE', #156, #243, #88, .T. ) ;
#143 = LINE ( 'NONE', #360, #114 ) ;
#144 = EDGE_LOOP ( 'NONE', ( #404, #182, #274, #18 ) ) ;
#145 = ORIENTED_EDGE ( 'NONE', *, *, #89, .F. ) ;
#146 = EDGE_LOOP ( 'NONE', ( #92, #230, #345, #405 ) ) ;
#147 = EDGE_CURVE ( 'NONE', #262, #141, #199, .T. ) ;
#148 = ORIENTED_EDGE ( 'NONE', *, *, #233, .F. ) ;
#149 = CIRCLE ( 'NONE', #108, 13.99999999999999822 ) ;
#150 = VERTEX_POINT ( 'NONE', #128 ) ;
#151 = DIRECTION ( 'NONE',  ( 0.0000000000000000000, 0.0000000000000000000, -1.000000000000000000 ) ) ;
#152 = AXIS2_PLACEMENT_3D ( 'NONE', #327, #62, #71 ) ;
#153 = CIRCLE ( 'NONE', #63, 13.19999999999999929 ) ;
#154 = ORIENTED_EDGE ( 'NONE', *, *, #305, .T. ) ;
#155 = CARTESIAN_POINT ( 'NONE',  ( 19.00000000000000000, -13.19999999999999929, -1.734723475976807094E-15 ) ) ;
#156 = VERTEX_POINT ( 'NONE', #100 ) ;
#157 = CARTESIAN_POINT ( 'NONE',  ( 19.00000000000000000, -13.19999999999999929, -1.734723475976807094E-15 ) ) ;
#158 = DIRECTION ( 'NONE',  ( 1.000000000000000000, 0.0000000000000000000, -0.0000000000000000000 ) ) ;
#159 = LINE ( 'NONE', #219, #46 ) ;
#160 = MECHANICAL_DESIGN_GEOMETRIC_PRESENTATION_REPRESENTATION (  '', ( #280 ), #42 ) ;
#161 = ORIENTED_EDGE ( 'NONE', *, *, #87, .T. ) ;
#162 = DIRECTION ( 'NONE',  ( 0.0000000000000000000, 0.0000000000000000000, -1.000000000000000000 ) ) ;
#163 = CARTESIAN_POINT ( 'NONE',  ( 0.0000000000000000000, 0.0000000000000000000, 13.19999999999999929 ) ) ;
#164 = ORIENTED_EDGE ( 'NONE', *, *, #116, .F. ) ;
#165 = CARTESIAN_POINT ( 'NONE',  ( 19.00000000000000000, 0.0000000000000000000, 0.0000000000000000000 ) ) ;
#166 = PRODUCT_DEFINITION_CONTEXT ( 'detailed design', #130, 'design' ) ;
#167 = AXIS2_PLACEMENT_3D ( 'NONE', #287, #218, #380 ) ;
#168 = APPLICATION_CONTEXT ( 'automotive_design' ) ;
#169 = VERTEX_POINT ( 'NONE', #288 ) ;
#170 = CARTESIAN_POINT ( 'NONE',  ( 19.00000000000000000, 14.00000000000000000, -98.00000000000000000 ) ) ;
#171 = VERTEX_POINT ( 'NONE', #221 ) ;
#172 = CARTESIAN_POINT ( 'NONE',  ( 19.00000000000000000, 0.0000000000000000000, 13.19999999999999929 ) ) ;
#173 = ORIENTED_EDGE ( 'NONE', *, *, #202, .F. ) ;
#174 = ADVANCED_FACE ( 'NONE', ( #306 ), #328, .F. ) ;
#175 = VECTOR ( 'NONE', #94, 1000.000000000000000 ) ;
#176 = ADVANCED_FACE ( 'NONE', ( #238 ), #53, .T. ) ;
#177 = ORIENTED_EDGE ( 'NONE', *, *, #147, .T. ) ;
#178 = LINE ( 'NONE', #375, #66 ) ;
#179 = PRESENTATION_STYLE_ASSIGNMENT (( #357 ) ) ;
#180 = EDGE_CURVE ( 'NONE', #272, #156, #149, .T. ) ;
#181 = DIRECTION ( 'NONE',  ( -0.0000000000000000000, 1.000000000000000000, 0.0000000000000000000 ) ) ;
#182 = ORIENTED_EDGE ( 'NONE', *, *, #125, .F. ) ;
#183 = DIRECTION ( 'NONE',  ( -1.000000000000000000, -0.0000000000000000000, 0.0000000000000000000 ) ) ;
#184 = DIRECTION ( 'NONE',  ( 0.0000000000000000000, 0.0000000000000000000, 1.000000000000000000 ) ) ;
#185 = VECTOR ( 'NONE', #332, 1000.000000000000000 ) ;
#186 = AXIS2_PLACEMENT_3D ( 'NONE', #298, #392, #232 ) ;
#187 = CARTESIAN_POINT ( 'NONE',  ( 19.00000000000000000, 0.0000000000000000000, -98.00000000000000000 ) ) ;
#188 = CARTESIAN_POINT ( 'NONE',  ( 19.00000000000000000, 14.00000000000000000, -8.673617379884035472E-16 ) ) ;
#189 = DIRECTION ( 'NONE',  ( 1.000000000000000000, 0.0000000000000000000, -0.0000000000000000000 ) ) ;
#190 = PLANE ( 'NONE',  #206 ) ;
#191 =( LENGTH_UNIT ( ) NAMED_UNIT ( * ) SI_UNIT ( .MILLI., .METRE. ) );
#192 = PLANE ( 'NONE',  #6 ) ;
#193 = DIRECTION ( 'NONE',  ( 1.000000000000000000, 0.0000000000000000000, -0.0000000000000000000 ) ) ;
#194 = DIRECTION ( 'NONE',  ( -1.000000000000000000, -0.0000000000000000000, 0.0000000000000000000 ) ) ;
#195 = PRESENTATION_LAYER_ASSIGNMENT (  '', '', ( #90 ) ) ;
#196 =( NAMED_UNIT ( * ) PLANE_ANGLE_UNIT ( ) SI_UNIT ( $, .RADIAN. ) );
#197 = CARTESIAN_POINT ( 'NONE',  ( 0.0000000000000000000, -13.19999999999999929, -98.00000000000000000 ) ) ;
#198 = PLANE ( 'NONE',  #186 ) ;
#199 = LINE ( 'NONE', #188, #242 ) ;
#200 = ADVANCED_FACE ( 'NONE', ( #270 ), #211, .F. ) ;
#201 = ADVANCED_FACE ( 'NONE', ( #134 ), #84, .T. ) ;
#202 = EDGE_CURVE ( 'NONE', #231, #329, #297, .T. ) ;
#203 = ORIENTED_EDGE ( 'NONE', *, *, #411, .F. ) ;
#204 = LINE ( 'NONE', #354, #283 ) ;
#205 = LINE ( 'NONE', #35, #175 ) ;
#206 = AXIS2_PLACEMENT_3D ( 'NONE', #216, #162, #220 ) ;
#207 = EDGE_LOOP ( 'NONE', ( #353, #120, #314, #278 ) ) ;
#208 = AXIS2_PLACEMENT_3D ( 'NONE', #215, #183, #251 ) ;
#209 = CARTESIAN_POINT ( 'NONE',  ( 19.00000000000000000, 0.0000000000000000000, 0.0000000000000000000 ) ) ;
#210 = DIRECTION ( 'NONE',  ( -1.000000000000000000, -0.0000000000000000000, -0.0000000000000000000 ) ) ;
#211 = CYLINDRICAL_SURFACE ( 'NONE', #91, 13.19999999999999929 ) ;
#212 = VECTOR ( 'NONE', #348, 1000.000000000000000 ) ;
#213 = SURFACE_STYLE_FILL_AREA ( #356 ) ;
#214 = VERTEX_POINT ( 'NONE', #263 ) ;
#215 = CARTESIAN_POINT ( 'NONE',  ( 0.0000000000000000000, 0.0000000000000000000, -98.00000000000000000 ) ) ;
#216 = CARTESIAN_POINT ( 'NONE',  ( 19.00000000000000000, -13.19999999999999929, -98.00000000000000000 ) ) ;
#217 = EDGE_LOOP ( 'NONE', ( #27, #164, #361, #250 ) ) ;
#218 = DIRECTION ( 'NONE',  ( -1.000000000000000000, -0.0000000000000000000, -0.0000000000000000000 ) ) ;
#219 = CARTESIAN_POINT ( 'NONE',  ( 19.00000000000000000, -13.19999999999999929, -98.00000000000000000 ) ) ;
#220 = DIRECTION ( 'NONE',  ( -1.000000000000000000, 0.0000000000000000000, -0.0000000000000000000 ) ) ;
#221 = CARTESIAN_POINT ( 'NONE',  ( 19.00000000000000000, -14.00000000000000000, -98.00000000000000000 ) ) ;
#222 = AXIS2_PLACEMENT_3D ( 'NONE', #187, #282, #126 ) ;
#223 =( NAMED_UNIT ( * ) SI_UNIT ( $, .STERADIAN. ) SOLID_ANGLE_UNIT ( ) );
#224 = DIRECTION ( 'NONE',  ( 0.0000000000000000000, 0.0000000000000000000, 1.000000000000000000 ) ) ;
#225 = EDGE_CURVE ( 'NONE', #243, #236, #143, .T. ) ;
#226 = VECTOR ( 'NONE', #98, 1000.000000000000000 ) ;
#227 = FACE_OUTER_BOUND ( 'NONE', #81, .T. ) ;
#228 = CARTESIAN_POINT ( 'NONE',  ( 0.0000000000000000000, -13.99999999999999822, 2.602085213965210642E-15 ) ) ;
#229 = CIRCLE ( 'NONE', #101, 13.99999999999999822 ) ;
#230 = ORIENTED_EDGE ( 'NONE', *, *, #333, .F. ) ;
#231 = VERTEX_POINT ( 'NONE', #76 ) ;
#232 = DIRECTION ( 'NONE',  ( 0.0000000000000000000, -1.000000000000000000, 5.421010862427531636E-15 ) ) ;
#233 = EDGE_CURVE ( 'NONE', #324, #150, #308, .T. ) ;
#234 = LINE ( 'NONE', #372, #226 ) ;
#235 = ADVANCED_FACE ( 'NONE', ( #276 ), #198, .F. ) ;
#236 = VERTEX_POINT ( 'NONE', #83 ) ;
#237 = ORIENTED_EDGE ( 'NONE', *, *, #132, .F. ) ;
#238 = FACE_OUTER_BOUND ( 'NONE', #144, .T. ) ;
#239 = VECTOR ( 'NONE', #25, 1000.000000000000000 ) ;
#240 = ORIENTED_EDGE ( 'NONE', *, *, #80, .T. ) ;
#241 = ORIENTED_EDGE ( 'NONE', *, *, #11, .T. ) ;
#242 = VECTOR ( 'NONE', #68, 1000.000000000000000 ) ;
#243 = VERTEX_POINT ( 'NONE', #228 ) ;
#244 = ORIENTED_EDGE ( 'NONE', *, *, #411, .T. ) ;
#245 = EDGE_CURVE ( 'NONE', #395, #169, #373, .T. ) ;
#246 = CARTESIAN_POINT ( 'NONE',  ( 0.0000000000000000000, -13.19999999999999929, -98.00000000000000000 ) ) ;
#247 = ORIENTED_EDGE ( 'NONE', *, *, #17, .T. ) ;
#248 = EDGE_LOOP ( 'NONE', ( #304, #336, #24, #8 ) ) ;
#249 = DIRECTION ( 'NONE',  ( -1.000000000000000000, -0.0000000000000000000, 0.0000000000000000000 ) ) ;
#250 = ORIENTED_EDGE ( 'NONE', *, *, #202, .T. ) ;
#251 = DIRECTION ( 'NONE',  ( 0.0000000000000000000, 0.0000000000000000000, 1.000000000000000000 ) ) ;
#252 = CARTESIAN_POINT ( 'NONE',  ( 0.0000000000000000000, 0.0000000000000000000, 0.0000000000000000000 ) ) ;
#253 = DIRECTION ( 'NONE',  ( 1.000000000000000000, 0.0000000000000000000, -0.0000000000000000000 ) ) ;
#254 = VECTOR ( 'NONE', #349, 1000.000000000000000 ) ;
#255 = DIRECTION ( 'NONE',  ( 0.0000000000000000000, 0.0000000000000000000, 1.000000000000000000 ) ) ;
#256 = AXIS2_PLACEMENT_3D ( 'NONE', #346, #189, #316 ) ;
#257 = CARTESIAN_POINT ( 'NONE',  ( 0.0000000000000000000, 14.00000000000000000, -98.00000000000000000 ) ) ;
#258 = DIRECTION ( 'NONE',  ( 1.000000000000000000, 0.0000000000000000000, -0.0000000000000000000 ) ) ;
#259 = CARTESIAN_POINT ( 'NONE',  ( 0.0000000000000000000, 0.0000000000000000000, 0.0000000000000000000 ) ) ;
#260 = CARTESIAN_POINT ( 'NONE',  ( 19.00000000000000000, -13.99999999999999822, 2.602085213965210642E-15 ) ) ;
#261 = DIRECTION ( 'NONE',  ( 1.000000000000000000, 0.0000000000000000000, -0.0000000000000000000 ) ) ;
#262 = VERTEX_POINT ( 'NONE', #170 ) ;
#263 = CARTESIAN_POINT ( 'NONE',  ( 0.0000000000000000000, 13.19999999999999929, -98.00000000000000000 ) ) ;
#264 = ORIENTED_EDGE ( 'NONE', *, *, #330, .F. ) ;
#265 = EDGE_CURVE ( 'NONE', #401, #358, #121, .T. ) ;
#266 = SURFACE_STYLE_USAGE ( .BOTH. , #82 ) ;
#267 = DIRECTION ( 'NONE',  ( -1.000000000000000000, -0.0000000000000000000, 0.0000000000000000000 ) ) ;
#268 = SURFACE_SIDE_STYLE ('',( #55 ) ) ;
#269 = ORIENTED_EDGE ( 'NONE', *, *, #142, .T. ) ;
#270 = FACE_OUTER_BOUND ( 'NONE', #113, .T. ) ;
#271 =( GEOMETRIC_REPRESENTATION_CONTEXT ( 3 ) GLOBAL_UNCERTAINTY_ASSIGNED_CONTEXT ( ( #312 ) ) GLOBAL_UNIT_ASSIGNED_CONTEXT ( ( #191, #291, #223 ) ) REPRESENTATION_CONTEXT ( 'NONE', 'WORKASPACE' ) );
#272 = VERTEX_POINT ( 'NONE', #331 ) ;
#273 = AXIS2_PLACEMENT_3D ( 'NONE', #36, #258, #224 ) ;
#274 = ORIENTED_EDGE ( 'NONE', *, *, #330, .T. ) ;
#275 = ORIENTED_EDGE ( 'NONE', *, *, #48, .F. ) ;
#276 = FACE_OUTER_BOUND ( 'NONE', #146, .T. ) ;
#277 = UNCERTAINTY_MEASURE_WITH_UNIT (LENGTH_MEASURE( 1.000000000000000082E-05 ), #362, 'distance_accuracy_value', 'NONE');
#278 = ORIENTED_EDGE ( 'NONE', *, *, #397, .T. ) ;
#279 = EDGE_CURVE ( 'NONE', #169, #393, #31, .T. ) ;
#280 = STYLED_ITEM ( 'NONE', ( #179 ), #15 ) ;
#281 = AXIS2_PLACEMENT_3D ( 'NONE', #56, #181, #344 ) ;
#282 = DIRECTION ( 'NONE',  ( -1.000000000000000000, -0.0000000000000000000, -0.0000000000000000000 ) ) ;
#283 = VECTOR ( 'NONE', #379, 1000.000000000000000 ) ;
#284 = CARTESIAN_POINT ( 'NONE',  ( 0.0000000000000000000, 13.19999999999999929, 0.0000000000000000000 ) ) ;
#285 = ORIENTED_EDGE ( 'NONE', *, *, #48, .T. ) ;
#286 = DIRECTION ( 'NONE',  ( -1.000000000000000000, -0.0000000000000000000, 0.0000000000000000000 ) ) ;
#287 = CARTESIAN_POINT ( 'NONE',  ( 19.00000000000000000, 0.0000000000000000000, -98.00000000000000000 ) ) ;
#288 = CARTESIAN_POINT ( 'NONE',  ( 19.00000000000000000, 0.0000000000000000000, 13.19999999999999929 ) ) ;
#289 = CARTESIAN_POINT ( 'NONE',  ( 19.00000000000000000, 13.19999999999999929, -98.00000000000000000 ) ) ;
#290 = AXIS2_PLACEMENT_3D ( 'NONE', #209, #249, #341 ) ;
#291 =( NAMED_UNIT ( * ) PLANE_ANGLE_UNIT ( ) SI_UNIT ( $, .RADIAN. ) );
#292 = DIRECTION ( 'NONE',  ( -1.000000000000000000, -0.0000000000000000000, 0.0000000000000000000 ) ) ;
#293 = CARTESIAN_POINT ( 'NONE',  ( 19.00000000000000000, 13.19999999999999929, -98.00000000000000000 ) ) ;
#294 = DIRECTION ( 'NONE',  ( 0.0000000000000000000, -1.000000000000000000, 0.0000000000000000000 ) ) ;
#295 = FACE_OUTER_BOUND ( 'NONE', #386, .T. ) ;
#296 = LINE ( 'NONE', #23, #239 ) ;
#297 = LINE ( 'NONE', #387, #51 ) ;
#298 = CARTESIAN_POINT ( 'NONE',  ( 19.00000000000000000, -13.99999999999999822, 2.602085213965210642E-15 ) ) ;
#299 = ADVANCED_FACE ( 'NONE', ( #319 ), #359, .F. ) ;
#300 = EDGE_CURVE ( 'NONE', #140, #395, #178, .T. ) ;
#301 = ORIENTED_EDGE ( 'NONE', *, *, #30, .F. ) ;
#302 = PRODUCT_DEFINITION_SHAPE ( 'NONE', 'NONE',  #343 ) ;
#303 = ADVANCED_FACE ( 'NONE', ( #295 ), #399, .F. ) ;
#304 = ORIENTED_EDGE ( 'NONE', *, *, #342, .T. ) ;
#305 = EDGE_CURVE ( 'NONE', #214, #324, #109, .T. ) ;
#306 = FACE_OUTER_BOUND ( 'NONE', #207, .T. ) ;
#307 = ORIENTED_EDGE ( 'NONE', *, *, #300, .T. ) ;
#308 = LINE ( 'NONE', #197, #351 ) ;
#309 = ORIENTED_EDGE ( 'NONE', *, *, #305, .F. ) ;
#310 = ORIENTED_EDGE ( 'NONE', *, *, #390, .T. ) ;
#311 = EDGE_LOOP ( 'NONE', ( #137, #99, #237, #347 ) ) ;
#312 = UNCERTAINTY_MEASURE_WITH_UNIT (LENGTH_MEASURE( 1.000000000000000082E-05 ), #191, 'distance_accuracy_value', 'NONE');
#313 = VERTEX_POINT ( 'NONE', #29 ) ;
#314 = ORIENTED_EDGE ( 'NONE', *, *, #333, .T. ) ;
#315 = AXIS2_PLACEMENT_3D ( 'NONE', #7, #194, #105 ) ;
#316 = DIRECTION ( 'NONE',  ( 0.0000000000000000000, 0.0000000000000000000, 1.000000000000000000 ) ) ;
#317 = VECTOR ( 'NONE', #377, 1000.000000000000000 ) ;
#318 = FACE_OUTER_BOUND ( 'NONE', #217, .T. ) ;
#319 = FACE_OUTER_BOUND ( 'NONE', #104, .T. ) ;
#320 = EDGE_LOOP ( 'NONE', ( #93, #5, #111, #43, #70, #73, #148, #309, #301, #275 ) ) ;
#321 = FACE_OUTER_BOUND ( 'NONE', #320, .T. ) ;
#322 =( LENGTH_UNIT ( ) NAMED_UNIT ( * ) SI_UNIT ( .MILLI., .METRE. ) );
#323 = CARTESIAN_POINT ( 'NONE',  ( 19.00000000000000000, 0.0000000000000000000, 0.0000000000000000000 ) ) ;
#324 = VERTEX_POINT ( 'NONE', #246 ) ;
#325 = DIRECTION ( 'NONE',  ( 1.000000000000000000, 0.0000000000000000000, 0.0000000000000000000 ) ) ;
#326 = AXIS2_PLACEMENT_3D ( 'NONE', #371, #39, #325 ) ;
#327 = CARTESIAN_POINT ( 'NONE',  ( 19.00000000000000000, 0.0000000000000000000, 0.0000000000000000000 ) ) ;
#328 = CYLINDRICAL_SURFACE ( 'NONE', #139, 13.19999999999999929 ) ;
#329 = VERTEX_POINT ( 'NONE', #284 ) ;
#330 = EDGE_CURVE ( 'NONE', #141, #272, #96, .T. ) ;
#331 = CARTESIAN_POINT ( 'NONE',  ( 0.0000000000000000000, 13.99999999999999822, 8.572527594031472204E-16 ) ) ;
#332 = DIRECTION ( 'NONE',  ( -1.000000000000000000, -0.0000000000000000000, -0.0000000000000000000 ) ) ;
#333 = EDGE_CURVE ( 'NONE', #395, #236, #403, .T. ) ;
#334 = ORIENTED_EDGE ( 'NONE', *, *, #279, .T. ) ;
#335 = CIRCLE ( 'NONE', #256, 13.99999999999999822 ) ;
#336 = ORIENTED_EDGE ( 'NONE', *, *, #396, .F. ) ;
#337 = EDGE_CURVE ( 'NONE', #140, #243, #77, .T. ) ;
#338 = FACE_OUTER_BOUND ( 'NONE', #248, .T. ) ;
#339 = UNCERTAINTY_MEASURE_WITH_UNIT (LENGTH_MEASURE( 1.000000000000000082E-05 ), #322, 'distance_accuracy_value', 'NONE');
#340 = COLOUR_RGB ( '',0.7921568627450980005, 0.8196078431372548767, 0.9333333333333333481 ) ;
#341 = DIRECTION ( 'NONE',  ( 0.0000000000000000000, 0.0000000000000000000, 1.000000000000000000 ) ) ;
#342 = EDGE_CURVE ( 'NONE', #150, #368, #394, .T. ) ;
#343 = PRODUCT_DEFINITION ( 'UNKNOWN', '', #50, #166 ) ;
#344 = DIRECTION ( 'NONE',  ( 0.0000000000000000000, -0.0000000000000000000, 1.000000000000000000 ) ) ;
#345 = ORIENTED_EDGE ( 'NONE', *, *, #300, .F. ) ;
#346 = CARTESIAN_POINT ( 'NONE',  ( 19.00000000000000000, 0.0000000000000000000, -98.00000000000000000 ) ) ;
#347 = ORIENTED_EDGE ( 'NONE', *, *, #89, .T. ) ;
#348 = DIRECTION ( 'NONE',  ( -0.0000000000000000000, -0.0000000000000000000, 1.000000000000000000 ) ) ;
#349 = DIRECTION ( 'NONE',  ( -1.000000000000000000, -0.0000000000000000000, -0.0000000000000000000 ) ) ;
#350 = CARTESIAN_POINT ( 'NONE',  ( 0.0000000000000000000, 0.0000000000000000000, 0.0000000000000000000 ) ) ;
#351 = VECTOR ( 'NONE', #10, 1000.000000000000000 ) ;
#352 = DIRECTION ( 'NONE',  ( 0.0000000000000000000, 0.0000000000000000000, 1.000000000000000000 ) ) ;
#353 = ORIENTED_EDGE ( 'NONE', *, *, #279, .F. ) ;
#354 = CARTESIAN_POINT ( 'NONE',  ( 19.00000000000000000, 13.19999999999999929, 0.0000000000000000000 ) ) ;
#355 = DIRECTION ( 'NONE',  ( 0.0000000000000000000, 0.0000000000000000000, 1.000000000000000000 ) ) ;
#356 = FILL_AREA_STYLE ('',( #118 ) ) ;
#357 = SURFACE_STYLE_USAGE ( .BOTH. , #268 ) ;
#358 = VERTEX_POINT ( 'NONE', #64 ) ;
#359 = PLANE ( 'NONE',  #110 ) ;
#360 = CARTESIAN_POINT ( 'NONE',  ( 0.0000000000000000000, -13.99999999999999822, 2.602085213965210642E-15 ) ) ;
#361 = ORIENTED_EDGE ( 'NONE', *, *, #87, .F. ) ;
#362 =( LENGTH_UNIT ( ) NAMED_UNIT ( * ) SI_UNIT ( .MILLI., .METRE. ) );
#363 = FACE_OUTER_BOUND ( 'NONE', #311, .T. ) ;
#364 = ADVANCED_FACE ( 'NONE', ( #338 ), #21, .T. ) ;
#365 = ORIENTED_EDGE ( 'NONE', *, *, #147, .F. ) ;
#366 = MECHANICAL_DESIGN_GEOMETRIC_PRESENTATION_REPRESENTATION (  '', ( #90 ), #382 ) ;
#367 = CIRCLE ( 'NONE', #152, 13.19999999999999929 ) ;
#368 = VERTEX_POINT ( 'NONE', #257 ) ;
#369 = EDGE_CURVE ( 'NONE', #171, #150, #205, .T. ) ;
#370 = AXIS2_PLACEMENT_3D ( 'NONE', #252, #381, #38 ) ;
#371 = CARTESIAN_POINT ( 'NONE',  ( 0.0000000000000000000, 0.0000000000000000000, 0.0000000000000000000 ) ) ;
#372 = CARTESIAN_POINT ( 'NONE',  ( 19.00000000000000000, -13.19999999999999929, -98.00000000000000000 ) ) ;
#373 = CIRCLE ( 'NONE', #315, 13.19999999999999929 ) ;
#374 = VECTOR ( 'NONE', #151, 1000.000000000000000 ) ;
#375 = CARTESIAN_POINT ( 'NONE',  ( 19.00000000000000000, -13.99999999999999822, 2.602085213965210642E-15 ) ) ;
#376 = DIRECTION ( 'NONE',  ( -1.000000000000000000, -0.0000000000000000000, -0.0000000000000000000 ) ) ;
#377 = DIRECTION ( 'NONE',  ( -1.000000000000000000, -0.0000000000000000000, -0.0000000000000000000 ) ) ;
#378 = PRESENTATION_LAYER_ASSIGNMENT (  '', '', ( #280 ) ) ;
#379 = DIRECTION ( 'NONE',  ( 0.0000000000000000000, 0.0000000000000000000, -1.000000000000000000 ) ) ;
#380 = DIRECTION ( 'NONE',  ( 0.0000000000000000000, 0.0000000000000000000, 1.000000000000000000 ) ) ;
#381 = DIRECTION ( 'NONE',  ( -1.000000000000000000, -0.0000000000000000000, 0.0000000000000000000 ) ) ;
#382 =( GEOMETRIC_REPRESENTATION_CONTEXT ( 3 ) GLOBAL_UNCERTAINTY_ASSIGNED_CONTEXT ( ( #339 ) ) GLOBAL_UNIT_ASSIGNED_CONTEXT ( ( #322, #196, #41 ) ) REPRESENTATION_CONTEXT ( 'NONE', 'WORKASPACE' ) );
#383 = CARTESIAN_POINT ( 'NONE',  ( 19.00000000000000000, 14.00000000000000000, -98.00000000000000000 ) ) ;
#384 = CARTESIAN_POINT ( 'NONE',  ( 19.00000000000000000, 0.0000000000000000000, 0.0000000000000000000 ) ) ;
#385 = APPLICATION_PROTOCOL_DEFINITION ( 'draft international standard', 'automotive_design', 1998, #130 ) ;
#386 = EDGE_LOOP ( 'NONE', ( #154, #145, #54, #52 ) ) ;
#387 = CARTESIAN_POINT ( 'NONE',  ( 19.00000000000000000, 13.19999999999999929, 0.0000000000000000000 ) ) ;
#388 = CIRCLE ( 'NONE', #370, 13.19999999999999929 ) ;
#389 = LINE ( 'NONE', #95, #374 ) ;
#390 = EDGE_CURVE ( 'NONE', #171, #262, #335, .T. ) ;
#391 = PRESENTATION_STYLE_ASSIGNMENT (( #266 ) ) ;
#392 = DIRECTION ( 'NONE',  ( -0.0000000000000000000, 5.421010862427531636E-15, 1.000000000000000000 ) ) ;
#393 = VERTEX_POINT ( 'NONE', #163 ) ;
#394 = CIRCLE ( 'NONE', #26, 13.99999999999999822 ) ;
#395 = VERTEX_POINT ( 'NONE', #155 ) ;
#396 = EDGE_CURVE ( 'NONE', #262, #368, #58, .T. ) ;
#397 = EDGE_CURVE ( 'NONE', #236, #393, #153, .T. ) ;
#398 = PRODUCT_RELATED_PRODUCT_CATEGORY ( 'part', '', ( #112 ) ) ;
#399 = CYLINDRICAL_SURFACE ( 'NONE', #167, 13.20000000000000284 ) ;
#400 = AXIS2_PLACEMENT_3D ( 'NONE', #45, #193, #106 ) ;
#401 = VERTEX_POINT ( 'NONE', #293 ) ;
#402 = PLANE ( 'NONE',  #281 ) ;
#403 = LINE ( 'NONE', #157, #136 ) ;
#404 = ORIENTED_EDGE ( 'NONE', *, *, #11, .F. ) ;
#405 = ORIENTED_EDGE ( 'NONE', *, *, #337, .T. ) ;
#406 = DIRECTION ( 'NONE',  ( -1.000000000000000000, -0.0000000000000000000, -0.0000000000000000000 ) ) ;
#407 = AXIS2_PLACEMENT_3D ( 'NONE', #129, #103, #138 ) ;
#408 = MANIFOLD_SOLID_BREP ( 'Aufsatz-Linear austragen1', #3 ) ;
#409 = CARTESIAN_POINT ( 'NONE',  ( 19.00000000000000000, 0.0000000000000000000, 0.0000000000000000000 ) ) ;
#410 = VECTOR ( 'NONE', #376, 1000.000000000000000 ) ;
#411 = EDGE_CURVE ( 'NONE', #313, #140, #67, .T. ) ;
#412 = DIRECTION ( 'NONE',  ( 0.0000000000000000000, 1.000000000000000000, -5.421010862427532425E-15 ) ) ;
ENDSEC;
END-ISO-10303-21;
