ISO-10303-21;
HEADER;
FILE_DESCRIPTION (( 'STEP AP214' ),
    '1' );
FILE_NAME ('0017240_PAHU-082-95-KS47X14.step',
    '2018-02-16T12:15:12',
    ( '' ),
    ( '' ),
    'SwSTEP 2.0',
    'SolidWorks 2018',
    '' );
FILE_SCHEMA (( 'AUTOMOTIVE_DESIGN' ));
ENDSEC;

DATA;
#1 = FACE_OUTER_BOUND ( 'NONE', #91, .T. ) ;
#2 = AXIS2_PLACEMENT_3D ( 'NONE', #193, #75, #278 ) ;
#3 = AXIS2_PLACEMENT_3D ( 'NONE', #162, #138, #185 ) ;
#4 = FACE_OUTER_BOUND ( 'NONE', #286, .T. ) ;
#5 = EDGE_LOOP ( 'NONE', ( #284 ) ) ;
#6 = CARTESIAN_POINT ( 'NONE',  ( 0.0000000000000000000, 0.0000000000000000000, 0.0000000000000000000 ) ) ;
#7 = DIRECTION ( 'NONE',  ( 0.0000000000000000000, 0.0000000000000000000, -1.000000000000000000 ) ) ;
#8 = ORIENTED_EDGE ( 'NONE', *, *, #118, .T. ) ;
#9 = DIRECTION ( 'NONE',  ( 0.0000000000000000000, 0.0000000000000000000, -1.000000000000000000 ) ) ;
#10 = DIRECTION ( 'NONE',  ( 0.0000000000000000000, 0.0000000000000000000, -1.000000000000000000 ) ) ;
#11 = CONICAL_SURFACE ( 'NONE', #249, 23.99999999999999645, 0.7853981633974482790 ) ;
#12 = EDGE_LOOP ( 'NONE', ( #81 ) ) ;
#13 = EDGE_LOOP ( 'NONE', ( #69 ) ) ;
#14 = AXIS2_PLACEMENT_3D ( 'NONE', #240, #236, #105 ) ;
#15 = VERTEX_POINT ( 'NONE', #266 ) ;
#16 = SURFACE_SIDE_STYLE ('',( #283 ) ) ;
#17 = EDGE_LOOP ( 'NONE', ( #34 ) ) ;
#18 = APPLICATION_CONTEXT ( 'automotive_design' ) ;
#19 = APPLICATION_PROTOCOL_DEFINITION ( 'draft international standard', 'automotive_design', 1998, #18 ) ;
#20 = FACE_OUTER_BOUND ( 'NONE', #179, .T. ) ;
#21 = VERTEX_POINT ( 'NONE', #161 ) ;
#22 = EDGE_CURVE ( 'NONE', #256, #256, #127, .T. ) ;
#23 = DIRECTION ( 'NONE',  ( 1.000000000000000000, 0.0000000000000000000, -0.0000000000000000000 ) ) ;
#24 = DIRECTION ( 'NONE',  ( 1.000000000000000000, -0.0000000000000000000, -0.0000000000000000000 ) ) ;
#25 = FACE_OUTER_BOUND ( 'NONE', #13, .T. ) ;
#26 = CARTESIAN_POINT ( 'NONE',  ( -47.49999999999999289, 0.0000000000000000000, 0.0000000000000000000 ) ) ;
#27 = ORIENTED_EDGE ( 'NONE', *, *, #39, .T. ) ;
#28 = DIRECTION ( 'NONE',  ( 0.0000000000000000000, 0.0000000000000000000, -1.000000000000000000 ) ) ;
#29 = DIRECTION ( 'NONE',  ( 1.000000000000000000, -0.0000000000000000000, -0.0000000000000000000 ) ) ;
#30 = AXIS2_PLACEMENT_3D ( 'NONE', #194, #53, #49 ) ;
#31 = VERTEX_POINT ( 'NONE', #287 ) ;
#32 = MECHANICAL_DESIGN_GEOMETRIC_PRESENTATION_REPRESENTATION (  '', ( #206 ), #70 ) ;
#33 = CIRCLE ( 'NONE', #213, 23.99999999999999645 ) ;
#34 = ORIENTED_EDGE ( 'NONE', *, *, #102, .T. ) ;
#35 = AXIS2_PLACEMENT_3D ( 'NONE', #74, #55, #279 ) ;
#36 = VERTEX_POINT ( 'NONE', #219 ) ;
#37 = DIRECTION ( 'NONE',  ( -1.000000000000000000, 0.0000000000000000000, 0.0000000000000000000 ) ) ;
#38 =( NAMED_UNIT ( * ) PLANE_ANGLE_UNIT ( ) SI_UNIT ( $, .RADIAN. ) );
#39 = EDGE_CURVE ( 'NONE', #36, #36, #226, .T. ) ;
#40 = FACE_OUTER_BOUND ( 'NONE', #46, .T. ) ;
#41 = DIRECTION ( 'NONE',  ( -1.000000000000000000, 0.0000000000000000000, 0.0000000000000000000 ) ) ;
#42 = EDGE_LOOP ( 'NONE', ( #198 ) ) ;
#43 = DIRECTION ( 'NONE',  ( 0.0000000000000000000, 0.0000000000000000000, 1.000000000000000000 ) ) ;
#44 = ADVANCED_FACE ( 'NONE', ( #263, #141 ), #274, .T. ) ;
#45 = PLANE ( 'NONE',  #190 ) ;
#46 = EDGE_LOOP ( 'NONE', ( #270 ) ) ;
#47 = AXIS2_PLACEMENT_3D ( 'NONE', #212, #122, #144 ) ;
#48 = EDGE_LOOP ( 'NONE', ( #168 ) ) ;
#49 = DIRECTION ( 'NONE',  ( 0.0000000000000000000, 0.0000000000000000000, -1.000000000000000000 ) ) ;
#50 = EDGE_CURVE ( 'NONE', #145, #145, #182, .T. ) ;
#51 = CARTESIAN_POINT ( 'NONE',  ( 47.49999999999999289, 0.0000000000000000000, 0.0000000000000000000 ) ) ;
#52 = AXIS2_PLACEMENT_3D ( 'NONE', #143, #23, #259 ) ;
#53 = DIRECTION ( 'NONE',  ( 1.000000000000000000, -0.0000000000000000000, -0.0000000000000000000 ) ) ;
#54 = ORIENTED_EDGE ( 'NONE', *, *, #50, .F. ) ;
#55 = DIRECTION ( 'NONE',  ( 1.000000000000000000, -0.0000000000000000000, -0.0000000000000000000 ) ) ;
#56 = DIRECTION ( 'NONE',  ( 1.000000000000000000, -0.0000000000000000000, -0.0000000000000000000 ) ) ;
#57 = ADVANCED_BREP_SHAPE_REPRESENTATION ( '0017240_PAHU-082-95-KS47X14', ( #267, #64 ), #282 ) ;
#58 = VERTEX_POINT ( 'NONE', #156 ) ;
#59 = EDGE_LOOP ( 'NONE', ( #152 ) ) ;
#60 = EDGE_LOOP ( 'NONE', ( #253 ) ) ;
#61 = AXIS2_PLACEMENT_3D ( 'NONE', #26, #78, #7 ) ;
#62 = DIRECTION ( 'NONE',  ( 0.0000000000000000000, 0.0000000000000000000, -1.000000000000000000 ) ) ;
#63 = ORIENTED_EDGE ( 'NONE', *, *, #251, .T. ) ;
#64 = AXIS2_PLACEMENT_3D ( 'NONE', #184, #43, #204 ) ;
#65 = DIRECTION ( 'NONE',  ( 0.0000000000000000000, 0.0000000000000000000, 1.000000000000000000 ) ) ;
#66 =( LENGTH_UNIT ( ) NAMED_UNIT ( * ) SI_UNIT ( .MILLI., .METRE. ) );
#67 = DIRECTION ( 'NONE',  ( 0.0000000000000000000, 0.0000000000000000000, -1.000000000000000000 ) ) ;
#68 = CARTESIAN_POINT ( 'NONE',  ( 46.99999999999999289, 0.0000000000000000000, -23.50000000000001066 ) ) ;
#69 = ORIENTED_EDGE ( 'NONE', *, *, #79, .T. ) ;
#70 =( GEOMETRIC_REPRESENTATION_CONTEXT ( 3 ) GLOBAL_UNCERTAINTY_ASSIGNED_CONTEXT ( ( #98 ) ) GLOBAL_UNIT_ASSIGNED_CONTEXT ( ( #86, #181, #222 ) ) REPRESENTATION_CONTEXT ( 'NONE', 'WORKASPACE' ) );
#71 = ADVANCED_FACE ( 'NONE', ( #205, #139 ), #260, .T. ) ;
#72 = ORIENTED_EDGE ( 'NONE', *, *, #102, .F. ) ;
#73 = EDGE_CURVE ( 'NONE', #31, #31, #146, .T. ) ;
#74 = CARTESIAN_POINT ( 'NONE',  ( 33.49999999999999289, 0.0000000000000000000, 0.0000000000000000000 ) ) ;
#75 = DIRECTION ( 'NONE',  ( -1.000000000000000000, 0.0000000000000000000, 0.0000000000000000000 ) ) ;
#76 = FACE_BOUND ( 'NONE', #5, .T. ) ;
#77 = PRESENTATION_LAYER_ASSIGNMENT (  '', '', ( #157 ) ) ;
#78 = DIRECTION ( 'NONE',  ( 1.000000000000000000, -0.0000000000000000000, -0.0000000000000000000 ) ) ;
#79 = EDGE_CURVE ( 'NONE', #94, #94, #124, .T. ) ;
#80 = CARTESIAN_POINT ( 'NONE',  ( 0.0000000000000000000, 0.0000000000000000000, 0.0000000000000000000 ) ) ;
#81 = ORIENTED_EDGE ( 'NONE', *, *, #22, .T. ) ;
#82 = PRODUCT_DEFINITION ( 'UNKNOWN', '', #218, #95 ) ;
#83 = PRESENTATION_STYLE_ASSIGNMENT (( #271 ) ) ;
#84 = FACE_OUTER_BOUND ( 'NONE', #48, .T. ) ;
#85 = SHAPE_DEFINITION_REPRESENTATION ( #273, #57 ) ;
#86 =( LENGTH_UNIT ( ) NAMED_UNIT ( * ) SI_UNIT ( .MILLI., .METRE. ) );
#87 = FILL_AREA_STYLE_COLOUR ( '', #294 ) ;
#88 = DIRECTION ( 'NONE',  ( -0.0000000000000000000, 0.0000000000000000000, -1.000000000000000000 ) ) ;
#89 = ADVANCED_FACE ( 'NONE', ( #119, #84 ), #257, .T. ) ;
#90 = TOROIDAL_SURFACE ( 'NONE', #245, 34.50000000000000000, 6.500000000000002665 ) ;
#91 = EDGE_LOOP ( 'NONE', ( #8 ) ) ;
#92 = APPLICATION_CONTEXT ( 'automotive_design' ) ;
#93 = CARTESIAN_POINT ( 'NONE',  ( 33.49999999999999289, 23.50000000000000355, 0.0000000000000000000 ) ) ;
#94 = VERTEX_POINT ( 'NONE', #289 ) ;
#95 = PRODUCT_DEFINITION_CONTEXT ( 'detailed design', #92, 'design' ) ;
#96 = DIRECTION ( 'NONE',  ( 1.000000000000000000, -0.0000000000000000000, -0.0000000000000000000 ) ) ;
#97 = ORIENTED_EDGE ( 'NONE', *, *, #242, .F. ) ;
#98 = UNCERTAINTY_MEASURE_WITH_UNIT (LENGTH_MEASURE( 1.000000000000000082E-05 ), #86, 'distance_accuracy_value', 'NONE');
#99 = AXIS2_PLACEMENT_3D ( 'NONE', #120, #37, #164 ) ;
#100 = CARTESIAN_POINT ( 'NONE',  ( 40.99999999999999289, 0.0000000000000000000, 0.0000000000000000000 ) ) ;
#101 = DIRECTION ( 'NONE',  ( 1.000000000000000000, -0.0000000000000000000, -0.0000000000000000000 ) ) ;
#102 = EDGE_CURVE ( 'NONE', #15, #15, #241, .T. ) ;
#103 = DIRECTION ( 'NONE',  ( 0.0000000000000000000, 0.0000000000000000000, -1.000000000000000000 ) ) ;
#104 = FACE_BOUND ( 'NONE', #192, .T. ) ;
#105 = DIRECTION ( 'NONE',  ( 0.0000000000000000000, 0.0000000000000000000, -1.000000000000000000 ) ) ;
#106 = DIRECTION ( 'NONE',  ( 1.000000000000000000, -0.0000000000000000000, -0.0000000000000000000 ) ) ;
#107 = FACE_OUTER_BOUND ( 'NONE', #59, .T. ) ;
#108 = EDGE_LOOP ( 'NONE', ( #110 ) ) ;
#109 = CYLINDRICAL_SURFACE ( 'NONE', #264, 23.50000000000000000 ) ;
#110 = ORIENTED_EDGE ( 'NONE', *, *, #220, .T. ) ;
#111 = CARTESIAN_POINT ( 'NONE',  ( 33.49999999999999289, 0.0000000000000000000, -23.50000000000000355 ) ) ;
#112 = UNCERTAINTY_MEASURE_WITH_UNIT (LENGTH_MEASURE( 1.000000000000000082E-05 ), #66, 'distance_accuracy_value', 'NONE');
#113 = DIRECTION ( 'NONE',  ( 0.0000000000000000000, 0.0000000000000000000, -1.000000000000000000 ) ) ;
#114 = TOROIDAL_SURFACE ( 'NONE', #261, 34.50000000000000000, 6.500000000000002665 ) ;
#115 =( NAMED_UNIT ( * ) SI_UNIT ( $, .STERADIAN. ) SOLID_ANGLE_UNIT ( ) );
#116 = FACE_OUTER_BOUND ( 'NONE', #171, .T. ) ;
#117 = FILL_AREA_STYLE_COLOUR ( '', #165 ) ;
#118 = EDGE_CURVE ( 'NONE', #197, #197, #121, .T. ) ;
#119 = FACE_BOUND ( 'NONE', #216, .T. ) ;
#120 = CARTESIAN_POINT ( 'NONE',  ( -33.49999999999999289, 19.99999999999999645, 0.0000000000000000000 ) ) ;
#121 = CIRCLE ( 'NONE', #14, 41.00000000000000711 ) ;
#122 = DIRECTION ( 'NONE',  ( 1.000000000000000000, -0.0000000000000000000, -0.0000000000000000000 ) ) ;
#123 = CARTESIAN_POINT ( 'NONE',  ( -47.50000000000000000, 0.0000000000000000000, 0.0000000000000000000 ) ) ;
#124 = CIRCLE ( 'NONE', #280, 41.00000000000000711 ) ;
#125 = CARTESIAN_POINT ( 'NONE',  ( -33.49999999999999289, 0.0000000000000000000, 0.0000000000000000000 ) ) ;
#126 = CYLINDRICAL_SURFACE ( 'NONE', #173, 23.50000000000000711 ) ;
#127 = CIRCLE ( 'NONE', #230, 23.50000000000001066 ) ;
#128 = EDGE_LOOP ( 'NONE', ( #160 ) ) ;
#129 = EDGE_CURVE ( 'NONE', #188, #188, #290, .T. ) ;
#130 =( GEOMETRIC_REPRESENTATION_CONTEXT ( 3 ) GLOBAL_UNCERTAINTY_ASSIGNED_CONTEXT ( ( #235 ) ) GLOBAL_UNIT_ASSIGNED_CONTEXT ( ( #131, #291, #115 ) ) REPRESENTATION_CONTEXT ( 'NONE', 'WORKASPACE' ) );
#131 =( LENGTH_UNIT ( ) NAMED_UNIT ( * ) SI_UNIT ( .MILLI., .METRE. ) );
#132 = EDGE_LOOP ( 'NONE', ( #238 ) ) ;
#133 = DIRECTION ( 'NONE',  ( 1.000000000000000000, -0.0000000000000000000, -0.0000000000000000000 ) ) ;
#134 = FILL_AREA_STYLE ('',( #87 ) ) ;
#135 = ADVANCED_FACE ( 'NONE', ( #20, #76 ), #151, .F. ) ;
#136 = SURFACE_SIDE_STYLE ('',( #175 ) ) ;
#137 = CIRCLE ( 'NONE', #154, 23.50000000000000355 ) ;
#138 = DIRECTION ( 'NONE',  ( 1.000000000000000000, -0.0000000000000000000, -0.0000000000000000000 ) ) ;
#139 = FACE_BOUND ( 'NONE', #243, .T. ) ;
#140 = AXIS2_PLACEMENT_3D ( 'NONE', #231, #244, #67 ) ;
#141 = FACE_OUTER_BOUND ( 'NONE', #128, .T. ) ;
#142 = ADVANCED_FACE ( 'NONE', ( #176, #116 ), #126, .F. ) ;
#143 = CARTESIAN_POINT ( 'NONE',  ( 47.49999999999999289, 34.50000000000000000, 0.0000000000000000000 ) ) ;
#144 = DIRECTION ( 'NONE',  ( 0.0000000000000000000, 0.0000000000000000000, -1.000000000000000000 ) ) ;
#145 = VERTEX_POINT ( 'NONE', #111 ) ;
#146 = CIRCLE ( 'NONE', #180, 34.50000000000000000 ) ;
#147 = DIRECTION ( 'NONE',  ( 0.0000000000000000000, 0.0000000000000000000, -1.000000000000000000 ) ) ;
#148 = DIRECTION ( 'NONE',  ( 0.0000000000000000000, 0.0000000000000000000, -1.000000000000000000 ) ) ;
#149 = VERTEX_POINT ( 'NONE', #155 ) ;
#150 = DIRECTION ( 'NONE',  ( 0.0000000000000000000, 0.0000000000000000000, -1.000000000000000000 ) ) ;
#151 = CONICAL_SURFACE ( 'NONE', #47, 23.50000000000001066, 0.7853981633974344012 ) ;
#152 = ORIENTED_EDGE ( 'NONE', *, *, #39, .F. ) ;
#153 = FACE_OUTER_BOUND ( 'NONE', #189, .T. ) ;
#154 = AXIS2_PLACEMENT_3D ( 'NONE', #125, #214, #150 ) ;
#155 = CARTESIAN_POINT ( 'NONE',  ( -47.49999999999999289, 0.0000000000000000000, -23.99999999999999645 ) ) ;
#156 = CARTESIAN_POINT ( 'NONE',  ( -33.49999999999999289, 0.0000000000000000000, -19.99999999999999645 ) ) ;
#157 = STYLED_ITEM ( 'NONE', ( #83 ), #267 ) ;
#158 = CARTESIAN_POINT ( 'NONE',  ( 47.49999999999999289, 0.0000000000000000000, -23.99999999999999645 ) ) ;
#159 = CYLINDRICAL_SURFACE ( 'NONE', #288, 41.00000000000000711 ) ;
#160 = ORIENTED_EDGE ( 'NONE', *, *, #220, .F. ) ;
#161 = CARTESIAN_POINT ( 'NONE',  ( -33.49999999999999289, 0.0000000000000000000, -23.50000000000000355 ) ) ;
#162 = CARTESIAN_POINT ( 'NONE',  ( -33.49999999999999289, 0.0000000000000000000, 0.0000000000000000000 ) ) ;
#163 = EDGE_CURVE ( 'NONE', #149, #149, #232, .T. ) ;
#164 = DIRECTION ( 'NONE',  ( 0.0000000000000000000, 0.0000000000000000000, 1.000000000000000000 ) ) ;
#165 = COLOUR_RGB ( '',0.8431372549019607865, 0.8156862745098039102, 0.7529411764705882248 ) ;
#166 = ADVANCED_FACE ( 'NONE', ( #1, #209 ), #90, .T. ) ;
#167 = FACE_BOUND ( 'NONE', #258, .T. ) ;
#168 = ORIENTED_EDGE ( 'NONE', *, *, #73, .F. ) ;
#169 = DIRECTION ( 'NONE',  ( 1.000000000000000000, -0.0000000000000000000, -0.0000000000000000000 ) ) ;
#170 = AXIS2_PLACEMENT_3D ( 'NONE', #281, #56, #148 ) ;
#171 = EDGE_LOOP ( 'NONE', ( #54 ) ) ;
#172 = CARTESIAN_POINT ( 'NONE',  ( -40.99999999999999289, 0.0000000000000000000, 0.0000000000000000000 ) ) ;
#173 = AXIS2_PLACEMENT_3D ( 'NONE', #6, #96, #10 ) ;
#174 = DIRECTION ( 'NONE',  ( 0.0000000000000000000, 0.0000000000000000000, -1.000000000000000000 ) ) ;
#175 = SURFACE_STYLE_FILL_AREA ( #183 ) ;
#176 = FACE_OUTER_BOUND ( 'NONE', #12, .T. ) ;
#177 = PRESENTATION_LAYER_ASSIGNMENT (  '', '', ( #206 ) ) ;
#178 = MECHANICAL_DESIGN_GEOMETRIC_PRESENTATION_REPRESENTATION (  '', ( #157 ), #130 ) ;
#179 = EDGE_LOOP ( 'NONE', ( #247 ) ) ;
#180 = AXIS2_PLACEMENT_3D ( 'NONE', #123, #169, #277 ) ;
#181 =( NAMED_UNIT ( * ) PLANE_ANGLE_UNIT ( ) SI_UNIT ( $, .RADIAN. ) );
#182 = CIRCLE ( 'NONE', #35, 23.50000000000000355 ) ;
#183 = FILL_AREA_STYLE ('',( #117 ) ) ;
#184 = CARTESIAN_POINT ( 'NONE',  ( 0.0000000000000000000, 0.0000000000000000000, 0.0000000000000000000 ) ) ;
#185 = DIRECTION ( 'NONE',  ( 0.0000000000000000000, 0.0000000000000000000, -1.000000000000000000 ) ) ;
#186 = ADVANCED_FACE ( 'NONE', ( #25, #268 ), #159, .T. ) ;
#187 = ORIENTED_EDGE ( 'NONE', *, *, #73, .T. ) ;
#188 = VERTEX_POINT ( 'NONE', #224 ) ;
#189 = EDGE_LOOP ( 'NONE', ( #196 ) ) ;
#190 = AXIS2_PLACEMENT_3D ( 'NONE', #93, #202, #88 ) ;
#191 = DIRECTION ( 'NONE',  ( 1.000000000000000000, -0.0000000000000000000, -0.0000000000000000000 ) ) ;
#192 = EDGE_LOOP ( 'NONE', ( #276 ) ) ;
#193 = CARTESIAN_POINT ( 'NONE',  ( -47.50000000000000000, 23.99999999999999645, 0.0000000000000000000 ) ) ;
#194 = CARTESIAN_POINT ( 'NONE',  ( 33.49999999999999289, 0.0000000000000000000, 0.0000000000000000000 ) ) ;
#195 = CYLINDRICAL_SURFACE ( 'NONE', #170, 19.99999999999999645 ) ;
#196 = ORIENTED_EDGE ( 'NONE', *, *, #50, .T. ) ;
#197 = VERTEX_POINT ( 'NONE', #269 ) ;
#198 = ORIENTED_EDGE ( 'NONE', *, *, #118, .F. ) ;
#199 = VERTEX_POINT ( 'NONE', #158 ) ;
#200 = CARTESIAN_POINT ( 'NONE',  ( 47.49999999999999289, 0.0000000000000000000, 0.0000000000000000000 ) ) ;
#201 = SURFACE_STYLE_USAGE ( .BOTH. , #16 ) ;
#202 = DIRECTION ( 'NONE',  ( 1.000000000000000000, 0.0000000000000000000, -0.0000000000000000000 ) ) ;
#203 = CIRCLE ( 'NONE', #3, 19.99999999999999645 ) ;
#204 = DIRECTION ( 'NONE',  ( 1.000000000000000000, 0.0000000000000000000, 0.0000000000000000000 ) ) ;
#205 = FACE_OUTER_BOUND ( 'NONE', #17, .T. ) ;
#206 = STYLED_ITEM ( 'NONE', ( #265 ), #57 ) ;
#207 = ADVANCED_FACE ( 'NONE', ( #215, #262 ), #114, .T. ) ;
#208 = CARTESIAN_POINT ( 'NONE',  ( -47.49999999999999289, 0.0000000000000000000, 0.0000000000000000000 ) ) ;
#209 = FACE_OUTER_BOUND ( 'NONE', #285, .T. ) ;
#210 = CARTESIAN_POINT ( 'NONE',  ( -41.00000000000000000, 0.0000000000000000000, 0.0000000000000000000 ) ) ;
#211 = EDGE_LOOP ( 'NONE', ( #63 ) ) ;
#212 = CARTESIAN_POINT ( 'NONE',  ( 46.99999999999999289, 0.0000000000000000000, 0.0000000000000000000 ) ) ;
#213 = AXIS2_PLACEMENT_3D ( 'NONE', #200, #133, #113 ) ;
#214 = DIRECTION ( 'NONE',  ( 1.000000000000000000, -0.0000000000000000000, -0.0000000000000000000 ) ) ;
#215 = FACE_OUTER_BOUND ( 'NONE', #233, .T. ) ;
#216 = EDGE_LOOP ( 'NONE', ( #250 ) ) ;
#217 = FACE_OUTER_BOUND ( 'NONE', #132, .T. ) ;
#218 = PRODUCT_DEFINITION_FORMATION_WITH_SPECIFIED_SOURCE ( 'ANY', '', #239, .NOT_KNOWN. ) ;
#219 = CARTESIAN_POINT ( 'NONE',  ( -46.99999999999999289, 0.0000000000000000000, -23.49999999999999645 ) ) ;
#220 = EDGE_CURVE ( 'NONE', #21, #21, #137, .T. ) ;
#221 = ORIENTED_EDGE ( 'NONE', *, *, #163, .F. ) ;
#222 =( NAMED_UNIT ( * ) SI_UNIT ( $, .STERADIAN. ) SOLID_ANGLE_UNIT ( ) );
#223 = PRODUCT_CONTEXT ( 'NONE', #18, 'mechanical' ) ;
#224 = CARTESIAN_POINT ( 'NONE',  ( 33.49999999999999289, 0.0000000000000000000, -19.99999999999999645 ) ) ;
#225 = CARTESIAN_POINT ( 'NONE',  ( 46.99999999999999289, 0.0000000000000000000, 0.0000000000000000000 ) ) ;
#226 = CIRCLE ( 'NONE', #140, 23.49999999999999645 ) ;
#227 = CLOSED_SHELL ( 'NONE', ( #272, #142, #135, #71, #166, #186, #207, #89, #292, #252, #44, #229 ) ) ;
#228 = PRODUCT_RELATED_PRODUCT_CATEGORY ( 'part', '', ( #239 ) ) ;
#229 = ADVANCED_FACE ( 'NONE', ( #217, #40 ), #195, .F. ) ;
#230 = AXIS2_PLACEMENT_3D ( 'NONE', #225, #24, #28 ) ;
#231 = CARTESIAN_POINT ( 'NONE',  ( -46.99999999999999289, 0.0000000000000000000, 0.0000000000000000000 ) ) ;
#232 = CIRCLE ( 'NONE', #61, 23.99999999999999645 ) ;
#233 = EDGE_LOOP ( 'NONE', ( #187 ) ) ;
#234 = DIRECTION ( 'NONE',  ( 0.0000000000000000000, 0.0000000000000000000, -1.000000000000000000 ) ) ;
#235 = UNCERTAINTY_MEASURE_WITH_UNIT (LENGTH_MEASURE( 1.000000000000000082E-05 ), #131, 'distance_accuracy_value', 'NONE');
#236 = DIRECTION ( 'NONE',  ( 1.000000000000000000, -0.0000000000000000000, -0.0000000000000000000 ) ) ;
#237 = CARTESIAN_POINT ( 'NONE',  ( 0.0000000000000000000, 0.0000000000000000000, 0.0000000000000000000 ) ) ;
#238 = ORIENTED_EDGE ( 'NONE', *, *, #129, .T. ) ;
#239 = PRODUCT ( '0017240_PAHU-082-95-KS47X14', '0017240_PAHU-082-95-KS47X14', '', ( #223 ) ) ;
#240 = CARTESIAN_POINT ( 'NONE',  ( 41.00000000000000000, 0.0000000000000000000, 0.0000000000000000000 ) ) ;
#241 = CIRCLE ( 'NONE', #254, 34.50000000000000000 ) ;
#242 = EDGE_CURVE ( 'NONE', #199, #199, #33, .T. ) ;
#243 = EDGE_LOOP ( 'NONE', ( #97 ) ) ;
#244 = DIRECTION ( 'NONE',  ( 1.000000000000000000, -0.0000000000000000000, -0.0000000000000000000 ) ) ;
#245 = AXIS2_PLACEMENT_3D ( 'NONE', #100, #191, #147 ) ;
#246 = DIRECTION ( 'NONE',  ( 1.000000000000000000, -0.0000000000000000000, -0.0000000000000000000 ) ) ;
#247 = ORIENTED_EDGE ( 'NONE', *, *, #242, .T. ) ;
#248 = APPLICATION_PROTOCOL_DEFINITION ( 'draft international standard', 'automotive_design', 1998, #92 ) ;
#249 = AXIS2_PLACEMENT_3D ( 'NONE', #208, #41, #65 ) ;
#250 = ORIENTED_EDGE ( 'NONE', *, *, #163, .T. ) ;
#251 = EDGE_CURVE ( 'NONE', #58, #58, #203, .T. ) ;
#252 = ADVANCED_FACE ( 'NONE', ( #275, #107 ), #109, .F. ) ;
#253 = ORIENTED_EDGE ( 'NONE', *, *, #79, .F. ) ;
#254 = AXIS2_PLACEMENT_3D ( 'NONE', #51, #29, #103 ) ;
#255 = DIRECTION ( 'NONE',  ( 1.000000000000000000, -0.0000000000000000000, -0.0000000000000000000 ) ) ;
#256 = VERTEX_POINT ( 'NONE', #68 ) ;
#257 = PLANE ( 'NONE',  #2 ) ;
#258 = EDGE_LOOP ( 'NONE', ( #27 ) ) ;
#259 = DIRECTION ( 'NONE',  ( -0.0000000000000000000, 0.0000000000000000000, -1.000000000000000000 ) ) ;
#260 = PLANE ( 'NONE',  #52 ) ;
#261 = AXIS2_PLACEMENT_3D ( 'NONE', #172, #106, #174 ) ;
#262 = FACE_OUTER_BOUND ( 'NONE', #60, .T. ) ;
#263 = FACE_BOUND ( 'NONE', #211, .T. ) ;
#264 = AXIS2_PLACEMENT_3D ( 'NONE', #80, #246, #62 ) ;
#265 = PRESENTATION_STYLE_ASSIGNMENT (( #201 ) ) ;
#266 = CARTESIAN_POINT ( 'NONE',  ( 47.49999999999999289, 0.0000000000000000000, -34.50000000000000000 ) ) ;
#267 = MANIFOLD_SOLID_BREP ( 'Rotation1', #227 ) ;
#268 = FACE_OUTER_BOUND ( 'NONE', #42, .T. ) ;
#269 = CARTESIAN_POINT ( 'NONE',  ( 41.00000000000000000, 0.0000000000000000000, -41.00000000000000711 ) ) ;
#270 = ORIENTED_EDGE ( 'NONE', *, *, #251, .F. ) ;
#271 = SURFACE_STYLE_USAGE ( .BOTH. , #136 ) ;
#272 = ADVANCED_FACE ( 'NONE', ( #153, #104 ), #45, .T. ) ;
#273 = PRODUCT_DEFINITION_SHAPE ( 'NONE', 'NONE',  #82 ) ;
#274 = PLANE ( 'NONE',  #99 ) ;
#275 = FACE_OUTER_BOUND ( 'NONE', #108, .T. ) ;
#276 = ORIENTED_EDGE ( 'NONE', *, *, #129, .F. ) ;
#277 = DIRECTION ( 'NONE',  ( 0.0000000000000000000, 0.0000000000000000000, -1.000000000000000000 ) ) ;
#278 = DIRECTION ( 'NONE',  ( 0.0000000000000000000, 0.0000000000000000000, 1.000000000000000000 ) ) ;
#279 = DIRECTION ( 'NONE',  ( 0.0000000000000000000, 0.0000000000000000000, -1.000000000000000000 ) ) ;
#280 = AXIS2_PLACEMENT_3D ( 'NONE', #210, #255, #234 ) ;
#281 = CARTESIAN_POINT ( 'NONE',  ( 0.0000000000000000000, 0.0000000000000000000, 0.0000000000000000000 ) ) ;
#282 =( GEOMETRIC_REPRESENTATION_CONTEXT ( 3 ) GLOBAL_UNCERTAINTY_ASSIGNED_CONTEXT ( ( #112 ) ) GLOBAL_UNIT_ASSIGNED_CONTEXT ( ( #66, #38, #293 ) ) REPRESENTATION_CONTEXT ( 'NONE', 'WORKASPACE' ) );
#283 = SURFACE_STYLE_FILL_AREA ( #134 ) ;
#284 = ORIENTED_EDGE ( 'NONE', *, *, #22, .F. ) ;
#285 = EDGE_LOOP ( 'NONE', ( #72 ) ) ;
#286 = EDGE_LOOP ( 'NONE', ( #221 ) ) ;
#287 = CARTESIAN_POINT ( 'NONE',  ( -47.50000000000000000, 0.0000000000000000000, -34.50000000000000000 ) ) ;
#288 = AXIS2_PLACEMENT_3D ( 'NONE', #237, #101, #9 ) ;
#289 = CARTESIAN_POINT ( 'NONE',  ( -41.00000000000000000, 0.0000000000000000000, -41.00000000000000711 ) ) ;
#290 = CIRCLE ( 'NONE', #30, 19.99999999999999645 ) ;
#291 =( NAMED_UNIT ( * ) PLANE_ANGLE_UNIT ( ) SI_UNIT ( $, .RADIAN. ) );
#292 = ADVANCED_FACE ( 'NONE', ( #167, #4 ), #11, .F. ) ;
#293 =( NAMED_UNIT ( * ) SI_UNIT ( $, .STERADIAN. ) SOLID_ANGLE_UNIT ( ) );
#294 = COLOUR_RGB ( '',0.8431372549019607865, 0.8156862745098039102, 0.7529411764705882248 ) ;
ENDSEC;
END-ISO-10303-21;
