ISO-10303-21;
HEADER;
FILE_DESCRIPTION (( 'STEP AP214' ),
    '1' );
FILE_NAME ('0022453.step',
    '2022-07-06T09:10:04',
    ( '' ),
    ( '' ),
    'SwSTEP 2.0',
    'SolidWorks 2020',
    '' );
FILE_SCHEMA (( 'AUTOMOTIVE_DESIGN' ));
ENDSEC;

DATA;
#1 = DIRECTION ( 'NONE',  ( 0.0000000000000000000, 0.0000000000000000000, 1.000000000000000000 ) ) ;
#2 = ORIENTED_EDGE ( 'NONE', *, *, #22, .T. ) ;
#3 = ADVANCED_FACE ( 'NONE', ( #188 ), #151, .T. ) ;
#4 = ORIENTED_EDGE ( 'NONE', *, *, #150, .F. ) ;
#5 = ORIENTED_EDGE ( 'NONE', *, *, #79, .F. ) ;
#6 = DIRECTION ( 'NONE',  ( 0.0000000000000000000, 0.0000000000000000000, -1.000000000000000000 ) ) ;
#7 = CARTESIAN_POINT ( 'NONE',  ( 3.110602869834276471E-15, 1.000000000000014433, -25.39999999999999503 ) ) ;
#8 = CLOSED_SHELL ( 'NONE', ( #3, #230, #29, #95, #15, #200, #237, #115, #157 ) ) ;
#9 = DIRECTION ( 'NONE',  ( 0.0000000000000000000, 0.0000000000000000000, 1.000000000000000000 ) ) ;
#10 = CONICAL_SURFACE ( 'NONE', #155, 25.39999999999999503, 0.7853981633974507215 ) ;
#11 = DIRECTION ( 'NONE',  ( 0.0000000000000000000, 1.000000000000000000, 0.0000000000000000000 ) ) ;
#12 = ORIENTED_EDGE ( 'NONE', *, *, #210, .T. ) ;
#13 = CARTESIAN_POINT ( 'NONE',  ( 0.0000000000000000000, 1.000000000000014433, 25.39999999999999503 ) ) ;
#14 = CONICAL_SURFACE ( 'NONE', #217, 25.39999999999999503, 0.7853981633974415066 ) ;
#15 = ADVANCED_FACE ( 'NONE', ( #41 ), #162, .T. ) ;
#16 = PRESENTATION_LAYER_ASSIGNMENT (  '', '', ( #82 ) ) ;
#17 = ORIENTED_EDGE ( 'NONE', *, *, #164, .F. ) ;
#18 = VERTEX_POINT ( 'NONE', #42 ) ;
#19 = DIRECTION ( 'NONE',  ( 0.0000000000000000000, 0.0000000000000000000, 1.000000000000000000 ) ) ;
#20 = UNCERTAINTY_MEASURE_WITH_UNIT (LENGTH_MEASURE( 1.000000000000000082E-05 ), #222, 'distance_accuracy_value', 'NONE');
#21 = CARTESIAN_POINT ( 'NONE',  ( 0.0000000000000000000, 38.60000000000000853, 0.0000000000000000000 ) ) ;
#22 = EDGE_CURVE ( 'NONE', #144, #208, #169, .T. ) ;
#23 = DIRECTION ( 'NONE',  ( 1.000000000000000000, 0.0000000000000000000, 0.0000000000000000000 ) ) ;
#24 = ORIENTED_EDGE ( 'NONE', *, *, #47, .T. ) ;
#25 = AXIS2_PLACEMENT_3D ( 'NONE', #161, #243, #116 ) ;
#26 = CARTESIAN_POINT ( 'NONE',  ( 0.0000000000000000000, 1.000000000000014655, 0.0000000000000000000 ) ) ;
#27 = EDGE_CURVE ( 'NONE', #206, #176, #245, .T. ) ;
#28 = PRODUCT ( '0022453', '0022453', '', ( #90 ) ) ;
#29 = ADVANCED_FACE ( 'NONE', ( #91 ), #10, .T. ) ;
#30 = VECTOR ( 'NONE', #128, 1000.000000000000000 ) ;
#31 = AXIS2_PLACEMENT_3D ( 'NONE', #242, #122, #239 ) ;
#32 = DIRECTION ( 'NONE',  ( 0.0000000000000000000, -0.0000000000000000000, -1.000000000000000000 ) ) ;
#33 = ORIENTED_EDGE ( 'NONE', *, *, #111, .F. ) ;
#34 = SURFACE_STYLE_FILL_AREA ( #40 ) ;
#35 = AXIS2_PLACEMENT_3D ( 'NONE', #129, #81, #19 ) ;
#36 = VERTEX_POINT ( 'NONE', #133 ) ;
#37 = ORIENTED_EDGE ( 'NONE', *, *, #219, .T. ) ;
#38 = CARTESIAN_POINT ( 'NONE',  ( 0.0000000000000000000, 1.000000000000014655, 25.39999999999999503 ) ) ;
#39 = DIRECTION ( 'NONE',  ( 0.0000000000000000000, -1.000000000000000000, 0.0000000000000000000 ) ) ;
#40 = FILL_AREA_STYLE ('',( #225 ) ) ;
#41 = FACE_OUTER_BOUND ( 'NONE', #218, .T. ) ;
#42 = CARTESIAN_POINT ( 'NONE',  ( 3.049370529876908897E-15, 38.60000000000000853, 24.39999999999999503 ) ) ;
#43 = AXIS2_PLACEMENT_3D ( 'NONE', #254, #130, #107 ) ;
#44 = FILL_AREA_STYLE ('',( #248 ) ) ;
#45 =( NAMED_UNIT ( * ) PLANE_ANGLE_UNIT ( ) SI_UNIT ( $, .RADIAN. ) );
#46 = AXIS2_PLACEMENT_3D ( 'NONE', #100, #61, #143 ) ;
#47 = EDGE_CURVE ( 'NONE', #208, #261, #172, .T. ) ;
#48 = CARTESIAN_POINT ( 'NONE',  ( 0.0000000000000000000, 1.084202172485504434E-15, 24.39999999999997726 ) ) ;
#49 = CARTESIAN_POINT ( 'NONE',  ( 3.110602869834276471E-15, 44.70000000000000284, -25.39999999999999503 ) ) ;
#50 = CARTESIAN_POINT ( 'NONE',  ( 0.0000000000000000000, 38.60000000000000853, -24.39999999999999503 ) ) ;
#51 = FACE_OUTER_BOUND ( 'NONE', #77, .T. ) ;
#52 = ORIENTED_EDGE ( 'NONE', *, *, #73, .T. ) ;
#53 = FACE_BOUND ( 'NONE', #120, .T. ) ;
#54 =( LENGTH_UNIT ( ) NAMED_UNIT ( * ) SI_UNIT ( .MILLI., .METRE. ) );
#55 = STYLED_ITEM ( 'NONE', ( #78 ), #60 ) ;
#56 = CARTESIAN_POINT ( 'NONE',  ( 0.0000000000000000000, 38.60000000000000853, 0.0000000000000000000 ) ) ;
#57 = ORIENTED_EDGE ( 'NONE', *, *, #210, .F. ) ;
#58 = PRODUCT_RELATED_PRODUCT_CATEGORY ( 'part', '', ( #28 ) ) ;
#59 =( NAMED_UNIT ( * ) SI_UNIT ( $, .STERADIAN. ) SOLID_ANGLE_UNIT ( ) );
#60 = ADVANCED_BREP_SHAPE_REPRESENTATION ( '0022453', ( #63, #257 ), #92 ) ;
#61 = DIRECTION ( 'NONE',  ( 0.0000000000000000000, 1.000000000000000000, 0.0000000000000000000 ) ) ;
#62 = PRESENTATION_STYLE_ASSIGNMENT (( #135 ) ) ;
#63 = MANIFOLD_SOLID_BREP ( 'Fase1', #8 ) ;
#64 = DIRECTION ( 'NONE',  ( 0.0000000000000000000, 0.0000000000000000000, 1.000000000000000000 ) ) ;
#65 = ORIENTED_EDGE ( 'NONE', *, *, #224, .F. ) ;
#66 = DIRECTION ( 'NONE',  ( 0.0000000000000000000, 1.000000000000000000, 0.0000000000000000000 ) ) ;
#67 = AXIS2_PLACEMENT_3D ( 'NONE', #241, #262, #145 ) ;
#68 =( GEOMETRIC_REPRESENTATION_CONTEXT ( 3 ) GLOBAL_UNCERTAINTY_ASSIGNED_CONTEXT ( ( #234 ) ) GLOBAL_UNIT_ASSIGNED_CONTEXT ( ( #209, #93, #227 ) ) REPRESENTATION_CONTEXT ( 'NONE', 'WORKASPACE' ) );
#69 = EDGE_LOOP ( 'NONE', ( #181, #204 ) ) ;
#70 =( NAMED_UNIT ( * ) SI_UNIT ( $, .STERADIAN. ) SOLID_ANGLE_UNIT ( ) );
#71 = EDGE_CURVE ( 'NONE', #18, #163, #233, .T. ) ;
#72 =( GEOMETRIC_REPRESENTATION_CONTEXT ( 3 ) GLOBAL_UNCERTAINTY_ASSIGNED_CONTEXT ( ( #214 ) ) GLOBAL_UNIT_ASSIGNED_CONTEXT ( ( #54, #45, #70 ) ) REPRESENTATION_CONTEXT ( 'NONE', 'WORKASPACE' ) );
#73 = EDGE_CURVE ( 'NONE', #144, #142, #141, .T. ) ;
#74 = CARTESIAN_POINT ( 'NONE',  ( 3.110602869834276471E-15, 37.59999999999999432, 25.39999999999999503 ) ) ;
#75 = CIRCLE ( 'NONE', #183, 24.39999999999999503 ) ;
#76 = PLANE ( 'NONE',  #106 ) ;
#77 = EDGE_LOOP ( 'NONE', ( #4, #24, #12, #37 ) ) ;
#78 = PRESENTATION_STYLE_ASSIGNMENT (( #178 ) ) ;
#79 = EDGE_CURVE ( 'NONE', #36, #80, #207, .T. ) ;
#80 = VERTEX_POINT ( 'NONE', #74 ) ;
#81 = DIRECTION ( 'NONE',  ( 0.0000000000000000000, 1.000000000000000000, 0.0000000000000000000 ) ) ;
#82 = STYLED_ITEM ( 'NONE', ( #62 ), #63 ) ;
#83 = ORIENTED_EDGE ( 'NONE', *, *, #164, .T. ) ;
#84 = DIRECTION ( 'NONE',  ( 0.0000000000000000000, 0.0000000000000000000, -1.000000000000000000 ) ) ;
#85 = APPLICATION_PROTOCOL_DEFINITION ( 'draft international standard', 'automotive_design', 1998, #232 ) ;
#86 = DIRECTION ( 'NONE',  ( 0.0000000000000000000, -1.000000000000000000, 0.0000000000000000000 ) ) ;
#87 = EDGE_LOOP ( 'NONE', ( #33, #190 ) ) ;
#88 = APPLICATION_PROTOCOL_DEFINITION ( 'draft international standard', 'automotive_design', 1998, #251 ) ;
#89 = ORIENTED_EDGE ( 'NONE', *, *, #27, .T. ) ;
#90 = PRODUCT_CONTEXT ( 'NONE', #232, 'mechanical' ) ;
#91 = FACE_OUTER_BOUND ( 'NONE', #253, .T. ) ;
#92 =( GEOMETRIC_REPRESENTATION_CONTEXT ( 3 ) GLOBAL_UNCERTAINTY_ASSIGNED_CONTEXT ( ( #20 ) ) GLOBAL_UNIT_ASSIGNED_CONTEXT ( ( #222, #259, #59 ) ) REPRESENTATION_CONTEXT ( 'NONE', 'WORKASPACE' ) );
#93 =( NAMED_UNIT ( * ) PLANE_ANGLE_UNIT ( ) SI_UNIT ( $, .RADIAN. ) );
#94 = AXIS2_PLACEMENT_3D ( 'NONE', #177, #236, #9 ) ;
#95 = ADVANCED_FACE ( 'NONE', ( #51 ), #127, .T. ) ;
#96 = AXIS2_PLACEMENT_3D ( 'NONE', #192, #235, #97 ) ;
#97 = DIRECTION ( 'NONE',  ( 0.0000000000000000000, 0.0000000000000000000, 1.000000000000000000 ) ) ;
#98 = DIRECTION ( 'NONE',  ( 0.0000000000000000000, -1.000000000000000000, 0.0000000000000000000 ) ) ;
#99 = ORIENTED_EDGE ( 'NONE', *, *, #267, .F. ) ;
#100 = CARTESIAN_POINT ( 'NONE',  ( -10.85034561661516861, 38.60000000000000853, 0.0000000000000000000 ) ) ;
#101 = SPHERICAL_SURFACE ( 'NONE', #191, 12.70000000000000284 ) ;
#102 = ORIENTED_EDGE ( 'NONE', *, *, #132, .T. ) ;
#103 = CARTESIAN_POINT ( 'NONE',  ( 3.110602869834276471E-15, 37.59999999999999432, 25.39999999999999503 ) ) ;
#104 = ORIENTED_EDGE ( 'NONE', *, *, #150, .T. ) ;
#105 = FACE_OUTER_BOUND ( 'NONE', #215, .T. ) ;
#106 = AXIS2_PLACEMENT_3D ( 'NONE', #158, #98, #32 ) ;
#107 = DIRECTION ( 'NONE',  ( 0.0000000000000000000, 0.0000000000000000000, 1.000000000000000000 ) ) ;
#108 = DIRECTION ( 'NONE',  ( 0.0000000000000000000, 1.000000000000000000, 0.0000000000000000000 ) ) ;
#109 = DIRECTION ( 'NONE',  ( 0.0000000000000000000, 0.0000000000000000000, -1.000000000000000000 ) ) ;
#110 = DIRECTION ( 'NONE',  ( 8.659560562354953812E-17, 0.7071067811865457964, -0.7071067811865492381 ) ) ;
#111 = EDGE_CURVE ( 'NONE', #142, #144, #134, .T. ) ;
#112 = EDGE_LOOP ( 'NONE', ( #17, #196 ) ) ;
#113 = CARTESIAN_POINT ( 'NONE',  ( 0.0000000000000000000, 0.0000000000000000000, 0.0000000000000000000 ) ) ;
#114 = AXIS2_PLACEMENT_3D ( 'NONE', #265, #11, #146 ) ;
#115 = ADVANCED_FACE ( 'NONE', ( #211 ), #76, .T. ) ;
#116 = DIRECTION ( 'NONE',  ( 0.0000000000000000000, 0.0000000000000000000, 1.000000000000000000 ) ) ;
#117 = AXIS2_PLACEMENT_3D ( 'NONE', #185, #137, #175 ) ;
#118 = PRODUCT_DEFINITION_CONTEXT ( 'detailed design', #251, 'design' ) ;
#119 = ORIENTED_EDGE ( 'NONE', *, *, #79, .T. ) ;
#120 = EDGE_LOOP ( 'NONE', ( #89, #102 ) ) ;
#121 = DIRECTION ( 'NONE',  ( 8.659560562354873694E-17, -0.7071067811865523467, 0.7071067811865426878 ) ) ;
#122 = DIRECTION ( 'NONE',  ( -0.0000000000000000000, -1.000000000000000000, -0.0000000000000000000 ) ) ;
#123 = ORIENTED_EDGE ( 'NONE', *, *, #252, .T. ) ;
#124 = FACE_OUTER_BOUND ( 'NONE', #240, .T. ) ;
#125 = ORIENTED_EDGE ( 'NONE', *, *, #171, .F. ) ;
#126 = DIRECTION ( 'NONE',  ( 0.0000000000000000000, 0.7071067811865457964, 0.7071067811865492381 ) ) ;
#127 = CYLINDRICAL_SURFACE ( 'NONE', #25, 25.39999999999999503 ) ;
#128 = DIRECTION ( 'NONE',  ( 0.0000000000000000000, -0.7071067811865523467, -0.7071067811865426878 ) ) ;
#129 = CARTESIAN_POINT ( 'NONE',  ( 0.0000000000000000000, 1.000000000000014655, 0.0000000000000000000 ) ) ;
#130 = DIRECTION ( 'NONE',  ( 0.0000000000000000000, 1.000000000000000000, 0.0000000000000000000 ) ) ;
#131 = SURFACE_STYLE_FILL_AREA ( #44 ) ;
#132 = EDGE_CURVE ( 'NONE', #176, #206, #268, .T. ) ;
#133 = CARTESIAN_POINT ( 'NONE',  ( 0.0000000000000000000, 37.59999999999999432, -25.39999999999999503 ) ) ;
#134 = CIRCLE ( 'NONE', #94, 24.39999999999997726 ) ;
#135 = SURFACE_STYLE_USAGE ( .BOTH. , #231 ) ;
#136 = COLOUR_RGB ( '',0.7921568627450980005, 0.8196078431372548767, 0.9333333333333333481 ) ;
#137 = DIRECTION ( 'NONE',  ( 0.0000000000000000000, 1.000000000000000000, 0.0000000000000000000 ) ) ;
#138 = PRODUCT_DEFINITION_SHAPE ( 'NONE', 'NONE',  #212 ) ;
#139 = DIRECTION ( 'NONE',  ( 0.0000000000000000000, 0.5066951088182071183, 0.8621253196024954990 ) ) ;
#140 = AXIS2_PLACEMENT_3D ( 'NONE', #189, #250, #1 ) ;
#141 = CIRCLE ( 'NONE', #117, 24.39999999999997726 ) ;
#142 = VERTEX_POINT ( 'NONE', #48 ) ;
#143 = DIRECTION ( 'NONE',  ( 0.0000000000000000000, -0.0000000000000000000, 1.000000000000000000 ) ) ;
#144 = VERTEX_POINT ( 'NONE', #174 ) ;
#145 = DIRECTION ( 'NONE',  ( 0.0000000000000000000, 0.0000000000000000000, 1.000000000000000000 ) ) ;
#146 = DIRECTION ( 'NONE',  ( 0.0000000000000000000, 0.0000000000000000000, 1.000000000000000000 ) ) ;
#147 = EDGE_LOOP ( 'NONE', ( #216, #104, #119, #57 ) ) ;
#148 = LINE ( 'NONE', #13, #226 ) ;
#149 = DIRECTION ( 'NONE',  ( 0.0000000000000000000, 0.0000000000000000000, 1.000000000000000000 ) ) ;
#150 = EDGE_CURVE ( 'NONE', #208, #36, #195, .T. ) ;
#151 = CYLINDRICAL_SURFACE ( 'NONE', #43, 25.39999999999999503 ) ;
#152 = DIRECTION ( 'NONE',  ( 0.0000000000000000000, 0.0000000000000000000, -1.000000000000000000 ) ) ;
#153 = DIRECTION ( 'NONE',  ( 0.0000000000000000000, 0.0000000000000000000, 1.000000000000000000 ) ) ;
#154 = COLOUR_RGB ( '',0.7921568627450980005, 0.8196078431372548767, 0.9333333333333333481 ) ;
#155 = AXIS2_PLACEMENT_3D ( 'NONE', #184, #168, #64 ) ;
#156 = VECTOR ( 'NONE', #194, 1000.000000000000000 ) ;
#157 = ADVANCED_FACE ( 'NONE', ( #198 ), #101, .T. ) ;
#158 = CARTESIAN_POINT ( 'NONE',  ( 0.0000000000000000000, -1.555301434917138433E-15, 0.0000000000000000000 ) ) ;
#159 = CARTESIAN_POINT ( 'NONE',  ( 3.110602869834276471E-15, 1.000000000000014655, -25.39999999999999503 ) ) ;
#160 = ORIENTED_EDGE ( 'NONE', *, *, #22, .F. ) ;
#161 = CARTESIAN_POINT ( 'NONE',  ( 0.0000000000000000000, 44.70000000000000284, 0.0000000000000000000 ) ) ;
#162 = CONICAL_SURFACE ( 'NONE', #255, 25.39999999999999503, 0.7853981633974415066 ) ;
#163 = VERTEX_POINT ( 'NONE', #50 ) ;
#164 = EDGE_CURVE ( 'NONE', #163, #18, #75, .T. ) ;
#165 = FACE_OUTER_BOUND ( 'NONE', #112, .T. ) ;
#166 = CARTESIAN_POINT ( 'NONE',  ( 0.0000000000000000000, 37.59999999999999432, -25.39999999999999503 ) ) ;
#167 = MECHANICAL_DESIGN_GEOMETRIC_PRESENTATION_REPRESENTATION (  '', ( #82 ), #68 ) ;
#168 = DIRECTION ( 'NONE',  ( 0.0000000000000000000, 1.000000000000000000, 0.0000000000000000000 ) ) ;
#169 = LINE ( 'NONE', #7, #193 ) ;
#170 = CARTESIAN_POINT ( 'NONE',  ( 0.0000000000000000000, 37.59999999999999432, 0.0000000000000000000 ) ) ;
#171 = EDGE_CURVE ( 'NONE', #142, #261, #148, .T. ) ;
#172 = CIRCLE ( 'NONE', #203, 25.39999999999999503 ) ;
#173 = AXIS2_PLACEMENT_3D ( 'NONE', #21, #86, #109 ) ;
#174 = CARTESIAN_POINT ( 'NONE',  ( 3.049370529876908108E-15, 1.084202172485504434E-15, -24.39999999999997726 ) ) ;
#175 = DIRECTION ( 'NONE',  ( 0.0000000000000000000, 0.0000000000000000000, 1.000000000000000000 ) ) ;
#176 = VERTEX_POINT ( 'NONE', #270 ) ;
#177 = CARTESIAN_POINT ( 'NONE',  ( 0.0000000000000000000, 1.084202172485504434E-15, 0.0000000000000000000 ) ) ;
#178 = SURFACE_STYLE_USAGE ( .BOTH. , #197 ) ;
#179 = CARTESIAN_POINT ( 'NONE',  ( 8.673617379884035472E-16, 32.00000000000000000, 4.336808689942017736E-16 ) ) ;
#180 = ORIENTED_EDGE ( 'NONE', *, *, #252, .F. ) ;
#181 = ORIENTED_EDGE ( 'NONE', *, *, #27, .F. ) ;
#182 = CARTESIAN_POINT ( 'NONE',  ( 0.0000000000000000000, 37.59999999999999432, 0.0000000000000000000 ) ) ;
#183 = AXIS2_PLACEMENT_3D ( 'NONE', #56, #256, #6 ) ;
#184 = CARTESIAN_POINT ( 'NONE',  ( 0.0000000000000000000, 1.000000000000014433, 0.0000000000000000000 ) ) ;
#185 = CARTESIAN_POINT ( 'NONE',  ( 0.0000000000000000000, 1.084202172485504434E-15, 0.0000000000000000000 ) ) ;
#186 = SHAPE_DEFINITION_REPRESENTATION ( #138, #60 ) ;
#187 = MECHANICAL_DESIGN_GEOMETRIC_PRESENTATION_REPRESENTATION (  '', ( #55 ), #72 ) ;
#188 = FACE_OUTER_BOUND ( 'NONE', #147, .T. ) ;
#189 = CARTESIAN_POINT ( 'NONE',  ( 8.673617379884035472E-16, 38.60000000000000853, 4.336808689942017736E-16 ) ) ;
#190 = ORIENTED_EDGE ( 'NONE', *, *, #73, .F. ) ;
#191 = AXIS2_PLACEMENT_3D ( 'NONE', #179, #263, #139 ) ;
#192 = CARTESIAN_POINT ( 'NONE',  ( 0.0000000000000000000, 37.59999999999999432, 0.0000000000000000000 ) ) ;
#193 = VECTOR ( 'NONE', #110, 1000.000000000000000 ) ;
#194 = DIRECTION ( 'NONE',  ( 0.0000000000000000000, 1.000000000000000000, 0.0000000000000000000 ) ) ;
#195 = LINE ( 'NONE', #49, #156 ) ;
#196 = ORIENTED_EDGE ( 'NONE', *, *, #71, .F. ) ;
#197 = SURFACE_SIDE_STYLE ('',( #34 ) ) ;
#198 = FACE_OUTER_BOUND ( 'NONE', #69, .T. ) ;
#199 = ORIENTED_EDGE ( 'NONE', *, *, #171, .T. ) ;
#200 = ADVANCED_FACE ( 'NONE', ( #105 ), #213, .T. ) ;
#201 = CARTESIAN_POINT ( 'NONE',  ( 0.0000000000000000000, 44.70000000000000284, 25.39999999999999503 ) ) ;
#202 = CIRCLE ( 'NONE', #35, 25.39999999999999503 ) ;
#203 = AXIS2_PLACEMENT_3D ( 'NONE', #26, #66, #153 ) ;
#204 = ORIENTED_EDGE ( 'NONE', *, *, #132, .F. ) ;
#205 = LINE ( 'NONE', #201, #266 ) ;
#206 = VERTEX_POINT ( 'NONE', #220 ) ;
#207 = CIRCLE ( 'NONE', #96, 25.39999999999999503 ) ;
#208 = VERTEX_POINT ( 'NONE', #159 ) ;
#209 =( LENGTH_UNIT ( ) NAMED_UNIT ( * ) SI_UNIT ( .MILLI., .METRE. ) );
#210 = EDGE_CURVE ( 'NONE', #261, #80, #205, .T. ) ;
#211 = FACE_OUTER_BOUND ( 'NONE', #87, .T. ) ;
#212 = PRODUCT_DEFINITION ( 'UNKNOWN', '', #258, #118 ) ;
#213 = CONICAL_SURFACE ( 'NONE', #114, 25.39999999999999503, 0.7853981633974507215 ) ;
#214 = UNCERTAINTY_MEASURE_WITH_UNIT (LENGTH_MEASURE( 1.000000000000000082E-05 ), #54, 'distance_accuracy_value', 'NONE');
#215 = EDGE_LOOP ( 'NONE', ( #160, #52, #199, #264 ) ) ;
#216 = ORIENTED_EDGE ( 'NONE', *, *, #224, .T. ) ;
#217 = AXIS2_PLACEMENT_3D ( 'NONE', #182, #269, #84 ) ;
#218 = EDGE_LOOP ( 'NONE', ( #180, #228, #260, #229 ) ) ;
#219 = EDGE_CURVE ( 'NONE', #80, #36, #249, .T. ) ;
#220 = CARTESIAN_POINT ( 'NONE',  ( 8.673617379884035472E-16, 38.60000000000000853, 10.85034561661516861 ) ) ;
#221 = ORIENTED_EDGE ( 'NONE', *, *, #111, .T. ) ;
#222 =( LENGTH_UNIT ( ) NAMED_UNIT ( * ) SI_UNIT ( .MILLI., .METRE. ) );
#223 = LINE ( 'NONE', #103, #244 ) ;
#224 = EDGE_CURVE ( 'NONE', #261, #208, #202, .T. ) ;
#225 = FILL_AREA_STYLE_COLOUR ( '', #136 ) ;
#226 = VECTOR ( 'NONE', #126, 1000.000000000000000 ) ;
#227 =( NAMED_UNIT ( * ) SI_UNIT ( $, .STERADIAN. ) SOLID_ANGLE_UNIT ( ) );
#228 = ORIENTED_EDGE ( 'NONE', *, *, #71, .T. ) ;
#229 = ORIENTED_EDGE ( 'NONE', *, *, #219, .F. ) ;
#230 = ADVANCED_FACE ( 'NONE', ( #124 ), #14, .T. ) ;
#231 = SURFACE_SIDE_STYLE ('',( #131 ) ) ;
#232 = APPLICATION_CONTEXT ( 'automotive_design' ) ;
#233 = CIRCLE ( 'NONE', #173, 24.39999999999999503 ) ;
#234 = UNCERTAINTY_MEASURE_WITH_UNIT (LENGTH_MEASURE( 1.000000000000000082E-05 ), #209, 'distance_accuracy_value', 'NONE');
#235 = DIRECTION ( 'NONE',  ( -0.0000000000000000000, -1.000000000000000000, -0.0000000000000000000 ) ) ;
#236 = DIRECTION ( 'NONE',  ( 0.0000000000000000000, 1.000000000000000000, 0.0000000000000000000 ) ) ;
#237 = ADVANCED_FACE ( 'NONE', ( #165, #53 ), #247, .T. ) ;
#238 = PRESENTATION_LAYER_ASSIGNMENT (  '', '', ( #55 ) ) ;
#239 = DIRECTION ( 'NONE',  ( 0.0000000000000000000, 0.0000000000000000000, 1.000000000000000000 ) ) ;
#240 = EDGE_LOOP ( 'NONE', ( #83, #123, #5, #99 ) ) ;
#241 = CARTESIAN_POINT ( 'NONE',  ( 0.0000000000000000000, 37.59999999999999432, 0.0000000000000000000 ) ) ;
#242 = CARTESIAN_POINT ( 'NONE',  ( 8.673617379884035472E-16, 38.60000000000000853, 4.336808689942017736E-16 ) ) ;
#243 = DIRECTION ( 'NONE',  ( 0.0000000000000000000, 1.000000000000000000, 0.0000000000000000000 ) ) ;
#244 = VECTOR ( 'NONE', #121, 1000.000000000000000 ) ;
#245 = CIRCLE ( 'NONE', #140, 10.85034561661516861 ) ;
#246 = LINE ( 'NONE', #166, #30 ) ;
#247 = PLANE ( 'NONE',  #46 ) ;
#248 = FILL_AREA_STYLE_COLOUR ( '', #154 ) ;
#249 = CIRCLE ( 'NONE', #67, 25.39999999999999503 ) ;
#250 = DIRECTION ( 'NONE',  ( -0.0000000000000000000, -1.000000000000000000, -0.0000000000000000000 ) ) ;
#251 = APPLICATION_CONTEXT ( 'automotive_design' ) ;
#252 = EDGE_CURVE ( 'NONE', #18, #80, #223, .T. ) ;
#253 = EDGE_LOOP ( 'NONE', ( #221, #2, #65, #125 ) ) ;
#254 = CARTESIAN_POINT ( 'NONE',  ( 0.0000000000000000000, 44.70000000000000284, 0.0000000000000000000 ) ) ;
#255 = AXIS2_PLACEMENT_3D ( 'NONE', #170, #39, #152 ) ;
#256 = DIRECTION ( 'NONE',  ( 0.0000000000000000000, -1.000000000000000000, 0.0000000000000000000 ) ) ;
#257 = AXIS2_PLACEMENT_3D ( 'NONE', #113, #149, #23 ) ;
#258 = PRODUCT_DEFINITION_FORMATION_WITH_SPECIFIED_SOURCE ( 'ANY', '', #28, .NOT_KNOWN. ) ;
#259 =( NAMED_UNIT ( * ) PLANE_ANGLE_UNIT ( ) SI_UNIT ( $, .RADIAN. ) );
#260 = ORIENTED_EDGE ( 'NONE', *, *, #267, .T. ) ;
#261 = VERTEX_POINT ( 'NONE', #38 ) ;
#262 = DIRECTION ( 'NONE',  ( -0.0000000000000000000, -1.000000000000000000, -0.0000000000000000000 ) ) ;
#263 = DIRECTION ( 'NONE',  ( 0.0000000000000000000, 0.8621253196024956100, -0.5066951088182072294 ) ) ;
#264 = ORIENTED_EDGE ( 'NONE', *, *, #47, .F. ) ;
#265 = CARTESIAN_POINT ( 'NONE',  ( 0.0000000000000000000, 1.000000000000014433, 0.0000000000000000000 ) ) ;
#266 = VECTOR ( 'NONE', #108, 1000.000000000000000 ) ;
#267 = EDGE_CURVE ( 'NONE', #163, #36, #246, .T. ) ;
#268 = CIRCLE ( 'NONE', #31, 10.85034561661516861 ) ;
#269 = DIRECTION ( 'NONE',  ( 0.0000000000000000000, -1.000000000000000000, 0.0000000000000000000 ) ) ;
#270 = CARTESIAN_POINT ( 'NONE',  ( 2.196145840891431716E-15, 38.60000000000000853, -10.85034561661516861 ) ) ;
ENDSEC;
END-ISO-10303-21;
